Oops, an error
Loading. Please wait.

Shedding Skin Tab

version 2
version 2

Whole song

Interactive

Video

40,919 views 15 this week
8 commentsread comments
1 2 3 4 5
x 23
add to favorites
launch autoscroll
font size
0
reset
how to read this tab
guitar tuner
Autoscroll
slow
fast
+/-
esc
set tempo
stop
Help us to improve Ultimate-Guitar.com Take our survey!
×
Song: Shedding Skin
Album: Far Beyond Driven
Artist: Pantera
Tabbed by the stinky bum rat

This is taken from the book so it should be right.
Normal tuning

[Intro/Chorus]

 riff 1a, 3 times               riff 1b
e|--------------------------|    |----------------------------|
B|--------------------------|   |----------------------------|
G|--------------------------|   |----------------------------|
D|-------------2-2----------|   |----------------------------|
A|-------2--3-------3--2----|   |-2-2----2-2----1-1----0-0---|
E|-0-0-3------------------3-|   |-----3------3------2------1-|
P.m........................     P.m..........................


 [Verses 1,2]
 riff 2
 Let ring.............................................|N.H.|
e|---------0---------------0---------------0---------------|
B|-----3-----3---------4-----4---------2-----2-------------|
G|-------0-----0---------0-----0---------0-----0---------5-|
D|---------------4---------------5---------------3-----5---|
A|---2---------------3---------------1---------------0-----|
E|-0---------------0---------------0---------------0-------|


 riff 3a, 2 times                     riff 3b
e|------------------------------|      |------------------------------------|
B|------------------------------|      |------------------------------------|
G|------------------------------|      |------------------------------------|
D|-----------------2------------|      |-------------2----------------------|
A|------------------------------|      |-----------------------2b-rbrbr-----|
E|-0-0-0-0-0-0-0-0----0-0-3/5-0-|      |-0-0-0-0-0-0---0-0-3/5---------3--0-|

In riff 3b, the last 3 is a 1 on the second time and the 0 is a 1 on the 
last time.
All the bends are 1/2 a step.

 riff 4
e|---------------------|
B|--6---------5-----4--|
G|--3------------------|
D|--0---------0-----0--|
A|------------0--------|
E|------------------4--|

play the chorus and the verse again.


 riff 5a, 17 times
e|--------------------------|
B|--------------------------|
G|--------------------------|
D|--------------------------|
A|--1h2p1---1-----1---------|
E|--------3-----3-----0-3---|
        P.m..............|


 riff 5b
e|--------------------------------------------------------------------------------------|
B|--------------------------------------------------------------------------------------|
G|--------------------------------------------------------------------------------------|
D|--------------------------------------------------------------------------------------|
A|-2h3p2---2------3h4p3---3------4h5p4---4------5h6p5---5----------2h3p3---2--7--5--4--3|
E|-------4---2-5--------5---3-6--------6---4-7--------7---7-6-5-3--------5----5--3--2--1|

 [Verse 3]
 riff 6a                                  riff 6b
e|---------------------------|     |------------------------------|
B|---------------------------|     |------------------------------|
G|----------9\3/9--3----3--3-|     |----------12\3-12---3----3--3-|
D|-----------------3----3--3-|     |--------------------3----3--3-|
A|----------7\1/7--1----1--1-|     |----------10\1-10---1----1--1-|
E|-0-0-0-0---------1----1--1-|     |-0-0-0-0------------1----1--1-|
P.m......|                        P.m......|


play riff 6a and 6b again.


 riff 7a                                   riff 7b
e|----------------------------|     |----------------------------|
B|----------------------------|     |----------------------------|
G|---------11\3/11--5----5--5-|     |---------14\5/14--5----5--5-|
D|------------------5----5--5-|     |------------------5----5--5-|
A|----------9\1/9---3----3--3-|     |---------12\3/12--3----3--3-|
E|-2-2-2-2----------3----3--3-|     |-2-2-2-2----------3----3--3-|
P.m......|                         P.m......|


play riff 6a and 6b again


 [Riff 8]
e|------------|
B|------------|
G|------------|
D|------------|
A|-X-X---X-X--|
E|-X-X---X-X--|

 [Solo 1]
e|-------------------------------------------------------------------------------------------|
B|-------------------------------------------------------------------------------------------|
G|-------------------------------12----14----12-14b-r-p12----14----12------------------------|
D|----------12----14----12-13-14----14----14--------------14----14----14p12------------------|
A|-13-13-14----14----14-----------------------------------------------------14\12p10-7-------|
E|-------------------------------------------------------------------------------------10~~~~|
P.m.........................................|

e|-17-12----12h18----12-19----------------------------------------|
B|-------15-------15-----------17------15------13p12--------------|
G|--------------------------15----15-16--16p14-------15p14p12\11--|
D|----------------------------------------------------------------|
A|----------------------------------------------------------------|
E|----------------------------------------------------------------|

e|------------------------------------------------|
B|-12p11p10----------11p10p9----------------------|
G|----------13p12p10---------12p11-9/11\5/12\5/13\|
D|------------------------------------------------|
A|------------------------------------------------|
E|------------------------------------------------|
                                                        S.H
e|---------17b(1)-14-------14-----------------------------------------|
B|--/14-17----------17p14----17p16-----17-16\14----16----16gb(1/2)----|
G|----------------------------------16----------14----14--------------|
D|--------------------------------------------------------------------|
A|--------------------------------------------------------------------|
E|--------------------------------------------------------------------|

e|-----------------------------------------|
B|---16---18--14---------------------------|
G|---------------16------------------------|
D|------------------16---------------------|
A|----------------------15~~~~~~~~~~~~~15--|
E|-----------------------------------------|

e|----------------------------------------------18/19--X--13/16-X--19b(2)~~~~~~~~~~~~~~-|
B|--/15---/15---/15---/15----/15---16--16-/17-X-17/18--X--12/15-X-----------------------|
G|--/16---/16---/16---/16----/16---14--14-/15-X-----------------------------------------|
D|--------------------------------------------------------------------------------------|
A|--------------------------------------------------------------------------------------|
E|--------------------------------------------------------------------------------------|
   T.p   T.p   T.p   T.p


play riff 8 then play verse 3


[Interlude]

 Gtr.1 S.H..............................................
e||------------------------------------------------------|
B||------------------------------------------------------|
G||---------------12--------------------12---------------|
D||----------/14------13~~~~~------/14------13~~~~~------|
A||------------------------------------------------------|
E||-----0-----------------------0------------------------|
 |
 |
 |Gtr.2
e||------------------------------------------------------|
B||------------------------------------------------------|
G||------------------------------------------------------|
D||---------------5---------------------5----------------|
A||-------/7----------6~~~~~-------/7-------6~~~~~~------|
E||-----0----------------------0-------------------------|

 Gtr.1 S.H................................................
e||----------------------------------------------------------------|
B||----------------------------------------------------------------|
G||----12--12\11------11--11\10------10--10\9------9~~~~~~---------|
D||---------------12-------------11------------10------------------|
A||----------------------------------------------------------------|
E||----------------------------------------------------------------|
 |
 |
 |
 |Gtr.2
e||----------------------------------------------------------------|
B||----------------------------------------------------------------|
G||----------------------------------------------------------------|
D||-----5---5\4--------4---4\3--------3---3\2------2~~~~~~---------|
A||----------------5--------------4-------------3------------------|
E||----------------------------------------------------------------|

 Gtr.1&2 S.H.........................................
e|---------------------------------------------------|
B|---------------------------------------------------|
G|--------2b(1)-2b(1)---2b(1)---2b(1)--3b(1)--3b(1)--|
D|---------------------------------------------------|
A|---------------------------------------------------|
E|---------------------------------------------------|

 Gtr.1&2 S.H................     B.D      B.D
e||-----------------------------------------------------------------------------|
B||-----------------------------------------------------------------------------|
G||-------3b(1)--------------3b(1)-\------0-\-----------------------------------|
D||---------------------------------\----------\--------------------------------|
A||----------------------------------\------------\-----------------------------|
E||-----------------------------------\--------------\--------------------------|
 |
 |
 |
 |Gtr.3
e||-----------------------------------------------------------------------------|
B||-----------------------------------------15-17-19-15h17h19-15-17-19-15h17h19-|
G||-----13-14-17-13h14h17-13-14-17-14h16h18-------------------------------------|
D||-----------------------------------------------------------------------------|
A||-----------------------------------------------------------------------------|
E||-----------------------------------------------------------------------------|
      P.m.....|P.m....|


[Solo 2]

 Gtr.3
e|-------------------------------------------------------------------------|
B|-------------------------------------13-14-17-13h14h17-13-14-17-13h14h17-|
G|-13-14-17-13h14h17-13-14-17-13h14h17-------------------------------------|
D|-------------------------------------------------------------------------|
A|-------------------------------------------------------------------------|
E|-------------------------------------------------------------------------|
P.m.....|P.m....|P.m....|P.m....|

e|-13--------13-------13-14-17-13h14h17-13-15-17-13h14h17-13-15-17-13h14h17--|
B|----14-17-----14h17--------------------------------------------------------|
G|---------------------------------------------------------------------------|
D|---------------------------------------------------------------------------|
A|---------------------------------------------------------------------------|
E|---------------------------------------------------------------------------|

       hold bend..|
e|---19b(1/2)--19-------------------------------------------------------------------|
B|--------------------------19b(1-1/2)-19b(1-1/2)-19b(1-1/2)-19b(1-1/2)-19b(1-1/2)--|
G|----------------------------------------------------------------------------------|
D|----------------------------------------------------------------------------------|
A|----------------------------------------------------------------------------------|
E|----------------------------------------------------------------------------------|
             T.p

play riff 8 then the outro


 [Outro]
 riff 9, 4 times
e|-----------------------------|
B|-----------------------------|
G|------------3----------------|
D|------------3----------------|
A|------------1----X-X---X-X---|
E|--0-0-1-1---1----X-X---X-X---|
  P.m.....|

 riff 10, 9 times
e|------------------------------------|
B|------------------------------------|
G|------------3-----------------------|
D|------------3-----------------------|
A|------------1----X-X-X-X-X-X-X-X----|
E|--0-0-1-1---1----X-X-X-X-X-X-X-X----|
 P.m.......|       P.m.............|


Then riff 9 once.

Key: 



************************************

| P.m      Palm Mute
| N.H      Natural Harmonic
| /        slide up
| \        slide down
| b(1)     bend one step
| b(1/2)   bend half a step
| b(1 1/2) bend one an a half steps
| r        release bend
| T.p      Tremelo Pick
| h        Hammer-on
| p        pull-off
| B.D      Bar Drive
| ~~       vibrato
| S.H      semi harm
| gb       gradual bend

************************************
Suggest correction
comments
print report bad tab
8 comments total. Showing first comments.
+3 reply
timi_hendrix 80 Jan 17, 2006 01:53 PM

Great tab.

+3 reply
grungehead27 10 Oct 09, 2006 03:52 PM

awesome ****in tab man, this song kicks ass

+2 reply
lester2215 508 Apr 11, 2007 08:38 PM

kcik ass tab man, u rock " AHH sheedin skin!! changing within, fallen in!!!! ERRRR AHHHH " lol

guest
You may want to rate the tab now too:
select rating
Wanna post a correction for this tab? Suggest correction