Oops, an error
Loading. Please wait.

Tell Me If You Want It Tab

586 views 3 this week
no commentswrite comment
1 2 3 4 5
please rate
add to favorites
launch autoscroll
font size
0
reset
how to read this tab
guitar tuner
Tab Pro tools
  • play this tab
  • loop segment
  • change instrument
  • show fretboard
  • metronome
×
Best way to learn
"Tell Me If You Want It"
Autoscroll
slow
fast
+/-
esc
set tempo
stop
Contributor
Pantera- tell me if you want it

E|-------------------------------|
B|-------------------------------|
G|-------------------------------|
D|-4--4-7--7-11--9--7------------|
A|-2--2-5--5-9---7--5------------|
E|-------------------------------|

E|-------------------------------------------------------------------|
B|-------------------------------------------------------------------|
G|-4----2------------------------------------------------------------|
D|-4----2-------4-------5-----7--------------------------------------|
A|-2----0-----4-------5-----7----------------------------------------|
E|----------2-------3-----5------------------------------------------|


E|-------------------------------------------------------------------|
B|---------------8-8------8-8------8-8---------10-10---10-10---------|
G|-4----2--------7-7------7-7------7-7---------9--9----9--9----------|
D|-4----2----5---5-5-5-5--5-5-5-5--5-5-5-5-4---7--7----7--7----------|
A|-2----0----5-----------------------------4-------------------------|
E|-----------3-----------------------------2-------------------------|

befor the solo play this:
E|-------------------------------------------------------------------|
B|-----10-10----5-5--------------------------------------------------|
G|-----9--9-----4-4--------------------------------------------------|
D|-7-7-7--7---2-2-2--------------------------------------------------|
A|-------------------------------------------------------------------|
E|-------------------------------------------------------------------|
comments
We did not receive enough feedback on this tab! Please rate:
print report bad tab
1 2 3 4 5
I want to post or [tab]
guest
You may want to rate the tab now too:
select rating
Please do not post tabs as comments. Select "correction" instead!