Oops, an error
Loading. Please wait.
We have an official The Art Of Shredding tab made by UG professional guitarists. Check out the tab »
×
by Pantera
8,294 views 3 this week
1 commentread comment
1 2 3 4 5
2 more votes to show rating
add to favorites
×
Save as Personal and add changes to this tab that will be seen only by you. Learn more ›
×
You can save this tab as Personal to edit and correct it or add notes. All changes will be seen only by you. Learn more »
launch autoscroll
font size
0
reset
how to read this tab
guitar tuner
backing track
0:00
0:00
edit
Autoscroll
slow
fast
+/-
esc
set tempo
stop
Difficulty
Ok now,, I do not take any credit for this...  I got it from a powertab on this site...



                      Guitar Solo
                    slow a bit Q=247
  E5 Eb5   D5  Db5B5   N.C.(C)         (A)
  Gtr IV
  H.            E E    +H       H       H      H
|--------------10-8-||-(8)----/10----|-11-----13----|
|--------------10-8-||-(8)----/10----|-11-----13----|
|-------------------||---------------|--------------|
|-------------------||---------------|--------------|
|-------------------||---------------|--------------|
|-------------------||---------------|--------------|
|
| Gtr I
|                       \7
| E  E E E E E  E E    +W              +H      H
|-------------------||---------------|--------------|
|-------------------||---------------|--------------|
|-------------------||---------------|--------------|
|-9--8-8-8-7----6-5-||-(5)-----------|-(5)----------|
|-7--6-6-6-5----4-3-||-(3)-----------|-(3)----------|
|-------------------||---------------|--------------|


  (A)
   ~~~~~~~~              ~~~~~~~~~~~~
   H     H       E      +H      +E    +S    E.
|-16----17----|-21b23==(21)----(21)r-(21)\-17h|
|-15----16----|-------------------------------|
|-------------|-------------------------------|
|-------------|-------------------------------|
|-------------|-------------------------------|
|-------------|-------------------------------|


  (C)
   ~~~    ~~~    ~~~      ~~~    ~~~
   Q   E  Q   E  Q     E  Q   E  Q   E  E
|-23p=17h22p=17h23p=|=17h22p=17h20p=17p15--|
|-------------------|----------------------|
|-------------------|----------------------|
|-------------------|----------------------|
|-------------------|----------------------|
|-------------------|----------------------|


  (A)
                                            \2
                                    ~~~~~~~~~~~
   Q       +Q    +Q    E  E        +H      +H
|-17b19===(17)r=(17)------------|-----------------|
|---------------------16-17b20==|=(17)r===(17)----|
|-------------------------------|-----------------|
|-------------------------------|-----------------|
|-------------------------------|-----------------|
|-------------------------------|-----------------|
|
| Gtr I
|  W                                W
|-------------------------------|-----------------|
|-------------------------------|-----------------|
|-------------------------------|-----------------|
|-------------------------------|-----------------|
|-------------------------------|-----------------|
|-------------------------------|-----------------|


  (C)
   S   S   E      E   E  E      +E    S  S  E    E  E  E      +E    S  S  E  E  E
|-12h=15p=12-----12--12-13b15==(13)r-12h15p12-|-12-12-13b15==(13)r-12h15p12-12-12---|
|---------------------------------------------|-------------------------------------|
|---------------------------------------------|-------------------------------------|
|---------------------------------------------|-------------------------------------|
|---------------------------------------------|-------------------------------------|
|---------------------------------------------|-------------------------------------|
|
|  TP  TP  TP TP
|  S   S   S  S   H.                             W
|---------------------------------------------|-------------------------------------|
|---------------------------------------------|-------------------------------------|
|--x\--x\--x\-x\------------------------------|-------------------------------------|
|--x\--x\--x\-x\------------------------------|-------------------------------------|
|---------------------------------------------|-------------------------------------|
|---------------------------------------------|-------------------------------------|


  (A)                                           D5
            ~~~~~            ~~~~~~~~~~~~
                   |-3--|
   Q       +H      E  E E    H       +E   +Q     S  S
|-12b15===(12)r----8h12p8-|---------------------21p17-|
|-------------------------|-10------(10)-(10)\--------|
|-------------------------|---------------------------|
|-------------------------|---------------------------|
|-------------------------|---------------------------|
|-------------------------|---------------------------|
|
|  W                         H..                 E
|-------------------------|---------------------------|
|-------------------------|---------------------------|
|-------------------------|----------------------7----|
|-------------------------|----------------------7----|
|-------------------------|----------------------5----|
|-------------------------|---------------------------|


                     E5                  F5
   +S   S  S  E    E    E  S  S  S  S  E    S
|-(17)-15-17p15--------19-15-13-15p13------17--|
|-----------------17------------------17-------|
|----------------------------------------------|
|----------------------------------------------|
|----------------------------------------------|
|----------------------------------------------|
|
|          PM---|             PM---|
|  +E      E    E    Q        E     E    E
|----------------------------------------------|
|----------------------------------------------|
|--(7)-----------------------------------------|
|--(7)---------------2-------------------3-----|
|--(5)-----5----5----2-------------------3-----|
|--------------------0--------0-----0----1-----|


                      G5                A5
                                                                    ~~
   +S   S  S  S  S  S  E. S  S  S  S  S  E    S   S  S  S  S  S  E  H
|-(17)-13-12h13p12h13-15p11p10h11p10-------|-----------------------------|
|------------------------------------13-16p|=15p=13----------------------|
|------------------------------------------|--------14h16p14----16-14----|
|------------------------------------------|-----------------17----------|
|------------------------------------------|-----------------------------|
|------------------------------------------|-----------------------------|
|
|          PM---|            PM---|
|  +E      E     E     Q     E     E     E   +W
|------------------------------------------|-----------------------------|
|------------------------------------------|-----------------------------|
|----------------------------------------2-|-(2)-------------------------|
|--(3)-----------------5-----------------2-|-(2)-------------------------|
|--(3)-----------------5-----------------0-|-(0)-------------------------|
|--(1)-----1-----1-----3-----3-----3-------|-----------------------------|


  A5                  D5              E5          F5
          \4
    ~~~~~
   +Q     H      +E   S  S    +Q    E E  E  +E  E  S  S
|--------------------------|----------------------------|
|--------<4>----(<4>)-5s12-|-(12)s==5-------------12s19-|
|-(14)---------------------|----------9s12-(12)s9-------|
|--------------------------|----------------------------|
|--------------------------|----------------------------|
|--------------------------|----------------------------|
|
|                                 PM|        PM-|
|  +H..               E       +E  E E Q      E  E  E
|--------------------------|----------------------------|
|--------------------------|----------------------------|
|--(2)----------------7----|--(7)-----------------------|
|--(2)----------------7----|--(7)-----2------------3----|
|--(0)----------------5----|--(5)-5-5-2------------3----|
|--------------------------|----------0------0--0--1----|


            G5             A5                       N.C.      A5
                                             ~~~~~
   +Q.        E  +E   Q     E         +E    +Q.      +H
|----------------------------------|-----------------------------|
|-(19)\-----/19-(19)s12\-----------|-----------------------------|
|--------------------------<5>b10==|=(<5>)-(<5>)----(<5>)r=======|
|----------------------------------|-----------------------------|
|----------------------------------|-----------------------------|
|----------------------------------|-----------------------------|
|
|       PM|           PM-|                   PM             PM
|  +E   E E   Q       E  E  E         +E     E   Q    E   E E E
|----------------------------------|-----------------------------|
|----------------------------------|-----------------------------|
|---------------------------2------|--(2)--------2------------2--|
|--(3)--------5-------------2------|--(2)--------2------------2--|
|--(3)--------5-------------0------|--(0)----0---0----------0-0--|
|--(1)--1-1---3-------3--3---------|------------------3h==5------|


                            N.C.         D5                 E5         F5
    ~~~~~~~~~~~~~~~~~~~~~
   +S    +E         +H           +E.      S  S    +E   Q      Q   Q     S  S
|----------------------------------------------|-----------------------15s20-|
|----------------------------------------12s19-|-(19)s12\---/19s=12\---------|
|-(<5>)-(<5>)b7====(<5>)--------(<5>)r---------|-----------------------------|
|----------------------------------------------|-----------------------------|
|----------------------------------------------|-----------------------------|
|----------------------------------------------|-----------------------------|
|
|   PM-----------|                     PM              PM-|       PM-|
|   E            E       Q  E E        E  E       +E   E  E   Q   E  E  E
|----------------------------------------------|-----------------------------|
|----------------------------------------------|-----------------------------|
|------------------------2----------------7----|--(7)---------9--------10----|
|------------------------2----------------7----|--(7)---------9--------10----|
|---0------------0-------0-------------0--5----|--(5)--5--5---7---7--7--8----|
|---------------------------3h5----------------|-----------------------------|


            G5                   A5
                                                  ~~~~~~~~~~~~
   +Q     E  S  S  +E.     E.     E        +E    +H      +Q.
|-(20)s==11-15s20-(20)s===11------------|------------------------|
|--------------------------------<3>b9==|=(<3>)-(<3>)----(3)r====|
|---------------------------------------|------------------------|
|---------------------------------------|------------------------|
|---------------------------------------|------------------------|
|---------------------------------------|------------------------|
|
|      PM|              PM----|
|  +E  E  E  Q          E      E  E        +W
|---------------------------------------|------------------------|
|---------------------------------------|------------------------|
|-(10)------12-------------------14-----|-(14)-------------------|
|-(10)------12-------------------14-----|-(14)-------------------|
|--(8)-8--8-10---------10-----10-12-----|-(12)-------------------|
|---------------------------------------|------------------------|


                                      D5                   E5                    F5
                                  \4
   +S    +E       +Q.     +Q     +S   E       +Q    +S   S  E      +Q     +S   S  E
|-------------------------------------5-----|-(5)---(5)-----7------(7)----(7)-----8-----|
|-(<3>)-(<3>)b6==(<3>)---(<3>)r=(<3>)-8b10==|=(8)---(8)r---10b12==(10)---(10)r---11b13==|
|-------------------------------------------|-------------------------------------------|
|-------------------------------------------|-------------------------------------------|
|-------------------------------------------|-------------------------------------------|
|-------------------------------------------|-------------------------------------------|
|
|                                                 PM|                  PM|
|  +H..                               E       +E  E  E      Q          E   E      E
|-------------------------------------------|-------------------------------------------|
|-------------------------------------------|-------------------------------------------|
|-(14)--------------------------------7-----|-(7)---------------------------------------|
|-(14)--------------------------------7-----|-(7)-----------2---------------------3-----|
|-(12)--------------------------------5-----|-(5)-5--5------2---------------------3-----|
|-------------------------------------------|---------------0----------0---0------1-----|


                 G5                    B5                      C5                    D5
   +Q     +S   S  E      +Q     +S   S  E        +Q     +S   S  E      +Q     +S   S  E
|--(8)----(8)----10-----(10)---(10)-----7-----|--(7)----(7)-----8------(8)----(8)----10------|
|-(11)---(11)r---13b15==(13)---(13)r---10b12==|=(10)---(10)r---11b13==(11)---(11)r---13b15===|
|---------------------------------------------|----------------------------------------------|
|---------------------------------------------|----------------------------------------------|
|---------------------------------------------|----------------------------------------------|
|---------------------------------------------|----------------------------------------------|
|
|      PM|                   PM|                     PM|                   PM|
|  +E  E   E      Q          E   E      E        +E  E   E      E      +E  E   E      E
|---------------------------------------------|----------------------------------------------|
|---------------------------------------------|----------------------------------------------|
|---------------------------------------4-----|--(4)------------5------(5)------------7------|
|--(3)------------5---------------------4-----|--(4)------------5------(5)------------7------|
|--(3)------------5---------------------2-----|--(2)-2---2------3------(3)-3---3------5------|
|--(1)-1---1------3----------3---3------------|----------------------------------------------|


                                    Sl
  D5             Eb5
                  ~~~~~~~~~~~~~~~~~~~
   +Q     +S   S  E      +Q.    +E
|-(10)---(10)----11-----(11)---(11)-||
|-(13)---(13)r---14b16==(14)---(14)r||
|-----------------------------------||
|-----------------------------------||
|-----------------------------------||
|-----------------------------------||
|
|      PM|
|  +E  E   E      H             +E
|-----------------------------------||
|-----------------------------------||
|--(7)------------8-------------(8)-||
|--(7)------------8-------------(8)-||
|--(5)-5---5------6-------------(6)-||
|-----------------------------------||




If it doesn't sound right and you get it bang on to teh music... do it twice as fast.
remember there are lots of guitars...

            
            
Suggest correction
Creating personal tab
Creating personal tab
You can edit any tab online and save it as your Personal.

You can edit, replace or remove any tab part or add personal notes – all changes will be seen only by you.

Personal tabs can be accessed anytime from any device, even offline.
Learn more »
Give kudos to tab author, rate the tab!
1 2 3 4 5
comments
print report bad tab
1 comment total.
0 reply
MyFuriousNipple 31 Apr 19, 2006 12:00 PM

Well thanks for posting it on here. I've been waiting for this for a while and I'm sure as hell not good enough and don't have enough time to have figured this out. I'll check its accuracy later.
God, I hate power tabs...

guest
Wanna post a correction for this tab? Suggest correction