Oops, an error
Loading. Please wait.

The Sleep Tab

version 1
version 1

Intro

Whole song

Interactive

8,164 views 6 this week
5 commentsread comments
1 2 3 4 5
x 3
add to favorites
launch autoscroll
font size
0
reset
how to read this tab
guitar tuner
backing track
0:00
0:00
×
Best way to learn
"The Sleep"
Autoscroll
slow
fast
+/-
esc
set tempo
stop
Intro - acoustic guitar

e-----------0----------------------------------------------------------
b---------4---4--------------------------------------------------------
g-------5-------5---- repeat ------------------------------------------
D-----7-----------7----------------------------------------------------
A---0---------------------------------8--------------------------------
E----------------------------------------------------------------------
Bass note changes to that F there ----^ but I don't know how it is 
being played maybe the guitar stays the same but the bass changes.
Somebody please tell me what to do.
This is what I play at the moment.

e-----------0---------------0---------------0--------------------------
b---------4---4-----------4---4-----------4---4-----------4---4--------
g-------5-------5-------5-------5-------5-------5-------5--------------
D-----7-----------7---7-----------7---7-----------7---7----------------
A---0---------------0---------------0---------------0-------0----------
E----------------------------------------------------------------------

By: Chris Johnson

e---------4-------7-------
b-------6-------6---------
g-----5-------5-----------
D---0-------x-------------
Suggest correction
Give kudos to tab author, rate the tab!
1 2 3 4 5
comments
print report bad tab
5 comments total. Showing first comments.
0 reply
Offspringruls 10 Apr 28, 2003 08:00 PM

well I know the guitar changes

0 reply
xSepulturax 10 Jul 12, 2005 08:00 PM

You move your hands into a different position,everything changes not just the bass note

-1 reply
Pantera-Addict 25 Dec 06, 2008 02:55 AM

try : e|---------0--------| |------------------|
b|-------3---3------| |-------4---4------|
g|-----5-------5----|x3 |-----5---5--------|
d|---7-----------7--| |---7--------------|
a|-0----------------| |-0----------------|
e|------------------| |------------------|

guest
You may want to rate the tab now too:
select rating
Wanna post a correction for this tab? Suggest correction