Oops, an error
Loading. Please wait.

The Sleep Tab

version 1
version 1

Whole song

Interactive

68,139 views 117 this week
8 commentsread comments
1 2 3 4 5
x 18
add to favorites
launch autoscroll
font size
0
reset
how to read this tab
guitar tuner
backing track
0:00
0:00
×
Best way to learn
"The Sleep"
Autoscroll
slow
fast
+/-
esc
set tempo
stop
Note: Most of this song's transcription is based on the midi by Mark Degarmo Chung.
      As a result many parts may be played differently or in different positions. 
      I have just put it into tablature and in the way I play it. This tab is not
      perfect. The solos and acoustic parts are pretty damn close but some verse 
      parts may be a bit off. Enjoy.

 [Acoustic Intro]
   (Also before solo)
e||-----0-------0----|-----0------------||-----0-------0----|-----0------4----7-||
B||----3-3-----3-3---|----3-3-----4--4--||----4-4-----4-4---|----4-4----3----6--||
G||---5---5---5---5--|---2---2---2-2--2-||---5---5---7---7--|---5---5--4----7---||
D||--7-----7-7-----7-|--3-----3-3---3---||--7-----7-5-------|--7-----73---/6----||
A||-0-------0--------|-0-------0--------||-0-------0--------|-0-----------------||
E||------------------|------------------||------------------|-------------------||

   Last ending                            [Main Riff] 
e||------10-------13-||-----------------||-----------------|-----------------|
B||-----9-------12---||-----------------||-----------------|-----------------|
G||---10------13-----||-2w\-------------||-----------------|-----------------|
D||-/9-----/12-------||-2w\-------------||-1/2-1/2---22211-|-1/2-1-----------|
A||------------------||-0w\-------2-0-2-||-2/3-2/3---33322-|-2/3-2-0---00020-|
E||------------------||-----------0-2-3-||-----------------|-------2---22232-|

                                       [Ending before chorus]
e||-----------------|-----------------||------------------||
B||-----------------|-----------------||------------------||
G||-----------------|-----------------||------------------||
D||-1/2-1/2---22211-|-1/2-1-----------||-1/2-1------------||
A||-2/3-2/3---33322-|-2/3-2-0---------||-2/3-2-0---222-20-||
E||-----------------|-------2---------||-------2---333-32-||

   [Chorus]                                   [Alternate endings]
e||--------------------|------------------||------------------||----------------||
B||--------------------|------------------||------------------||----------------||
G||--------------------|------------------||------------------||----------------||
D||------------------2-|------------------||-----2---2---2----||----------------||
A||-2---4---5--5/9\5-0-|------------------||---2-0-2-0-2-0----||----------2-0-2-||
E||-000022223333/7\3---|---------------32-||----3---3---3--32-||----------0-2-3-||

   [Acoustic in solo]
e||-----0-------0----|-----0-------0-0--||----4---7----10------13-|-----10------13---7---4-||
B||----3-3-----3-3---|----3-3-----3---3-||---3---6----9------12---|----9------12----6---3--||
G||---5---5---5---5--|---5---5---5------||--4---7---10-----13-----|--10-----13-----7---4---||
D||--7-----7-6-----6-|--5-----5-4-------||-3---6---9-----12-------|-9-----12------6---3----||
A||-0-------0--------|-0-------0--------||------------------------|------------------------||
E||------------------|------------------||------------------------|------------------------||

   [Distortion]                                  [Acoustic backing next]
e||-----||-----------------|-----------------||-----------------|-----------------||
B||-----||-----------------|-----------------||-----------------|-----------------||
G||-----||------20---------|-----------------||-----------------|-----------------||
D||-2---||--------3-3-3----|-----------------||-----------------|-------3-----4---||
A||-0---||-0-00------------|-5-55------------||-2--2--2---------|-2--2--1-----2---||
E||-----||-----------------|--------3-3-3----||-0--0--0---------|-0--0------0-----||

[Acoustic]             [Distortion]                          [End solo[]
e||---------0---------||-----------------|-----------------||----------|-------------||
B||-----0-------0-----||-----------------|-----------------||----------|-------------||
G||----3--3---3---3---||------20---------|-----------------||----------|-------------||
D||---5----5---5----5-||--------3-3-3----|-----------------||----------|-------------||
A||-------------------||-00000-----------|-55555555--------||-2w\------|-------2-0-2-||
E||-0-----------------||-----------------|----------3-3----||-0w\------|-------0-2-3-||

   [Alternate riffs[]
e||-----------------|-------------------||--------------------|------------------||
B||-----------------|-------------------||--------------------|------------------||
G||-----------------|-----------7-------||--------------------|----------7-------||
D||-1/2-1/2---22211-|-1/2-1/2---7---9---||------------------2-|----------7---9---||
A||-2/3-2/3---33322-|-2/3-2/3---5---6---||-2---4---5--5/9\5-0-|----------5---6---||
E||-----------------|-------------------||-000022223333/7\3---|------------------||


[Solo]
                  4x                   1            101  
e||-----------------|-8---7---5------------------------------------------------|
B||-5---4---5---6---|---------------------17-----------17----------------------|
G||-----------------|----------------16^----16~---16^----16h17-16p1416-16-14~--|
D||-----------------|----------------------------------------------------------|
A||-----------------|----------------------------------------------------------|
E||-----------------|----------------------------------------------------------|

      101             2   1   1          2
e||--------------17-17^-19^-19^--17--17--------20-19-17-19-17h19p17\1517-15-13-|
B||------17------------------------20--20^-~-----------------------------------|
G||-16^----16~-----------------------------------------------------------------|
D||----------------------------------------------------------------------------|
A||-------------------------------------------/--------------------------------|
E||----------------------------------------------------------------------------|


e||-12-13-12h13p12\10-12------------------------------------------------------|
B||----------------------15\13-13-12h13p12\10-10h12p10\8-8h10p8\6-6-5-5h6p5\3-|
G||---------------------------------------------------------------------------|
D||---------------------------------------------------------------------------|
A||---------------------------------------------------------------------------|
E||---------------------------------------------------------------------------|

                              2   ||   2                          2         1 0
e||-------------------------<5w~>-||------17-17-17~--17-19-20~--20^--19p1719^---|
B||-3h5p3\1-1h3p1p0-0h1p0---------||-20^----------------------------------------|
G||----------------------2--------||--------------------------------------------|
D||-------------------------------||--------------------------------------------|
A||-------------------------------||--------------------------------------------|
E||-------------------------------||--------------------------------------------|

      2     1 0   1       4         |1.       2 0    
e||-22^-----------------------17-17-|-17~----------------------------------------|
B||-------17^-----------------------|-------18^--~-------------------------------|
G||-------------16^--16-------14-14-|--------------5p4h5p4h5p4h5-7p5h7p5h7p5h7p5-|
D||---------------------15^---------|--------------------------------------------|
A||---------------------------------|--------------------------------------------|
E||---------------------------------|--------------------------------------------|

                                       1         2    1              2
e||---------------------------------------------------------------------|
B||----------------------------------------------------------------17^--|
G||-7h9p7h9p7h9p7-9h10p9h10p9h10p9---16^-p1416-14^--16^-p1416-16~-------|
D||---------------------------------------------------------------------|
A||---------------------------------------------------------------------|
E||---------------------------------------------------------------------|

                                           -1 0    |2. -1   -1       2   2  2  2
e||---------------------------------------17~w----||-17\w/17\w/17~---------------|
B||-17-15p1315p13p12h13h14h15p12h1312-------------||-----------------------------|
G||-----------------------------------1412--------||-14\w/14\w------7^--7^-7^-7^-|
D||-----------------------------------------------||-----------------------------|
A||-----------------------------------------------||-----------------------------|
E||-----------------------------------------------||-----------------------------|

                                      5
e||------------------108--87-7-----------------------------------------------------|
B||---------------------10--8-10~----------------------------------------------13--|
G||-5~---75-54-4--------------------<5w>---<5>~-------------------1212--1112h14----|
D||--------7--5-7~-----------------------------------1012101012/14----14-----------|
A||--------------------------------------------------------------------------------|
E||--------------------------------------------------------------------------------|

                   2                                             1 010         2
1||-----10/121215---1213121312--12---------17151215151217------19^-----17--17-----|
2||-1012---------15^----------16--16151315---------------161513----------20--20^--|
3||-------------------------------------------------------------------------------|
4||-------------------------------------------------------------------------------|
5||-------------------------------------------------------------------------------|
6||-------------------------------------------------------------------------------|

                                                                                                     
e||-17-20-22-17-20-17-20-22-20-22-20-17-20-17-17-17------|
B||------------------------------------------------20-17-|
G||------------------------------------------------------|
D||------------------------------------------------------|
A||------------------------------------------------------|
E||------------------------------------------------------|

                                     2                    2
e|17-20-17-20-17-17-17-17---------------17-20-17-17-17-20----|
B|------------------------20-20-17-20^-------------------20^-|
G|-----------------------------------------------------------|
D|-----------------------------------------------------------|
A|-----------------------------------------------------------|
E|-----------------------------------------------------------|

         2                                                   0 -2 0 -2   3 0
e||-17-----17---20--------20--------20--------20--------20--<5w>-------<5w>-~-||
B||----20^----20--------20--------20--------20--------20----------------------||
G||---------------19p17-----19p17-----19p17-----19p17-----19------------------||
D||---------------------------------------------------------------------------||
A||---------------------------------------------------------------------------||
E||---------------------------------------------------------------------------||

[Backing Part at end]
e||-15--14--12---------|-----17-----------|-15--14--12---------|------------------|
B||-------------15-12/-|-14---------------|-------------15-12/-|-14---------------|
G||--------------------|------------------|--------------------|-----14-----------|
D||--------------------|------------------|--------------------|------------------|
A||--------------------|------------------|--------------------|------------------|
E||--------------------|------------------|--------------------|------------------|

                                  2                          2
e||-15--14--12---------|-----17-19^-------|-15--14--12-----19^-|---17-------------||
B||-------------15-12/-|-14---------------|-------------15-----|------------------||
G||--------------------|------------------|--------------------|------------------||
D||--------------------|------------------|--------------------|------------------||
A||--------------------|------------------|--------------------|------------------||
E||--------------------|------------------|--------------------|------------------||



**************************************************************

 h  = hammer-on
 p  = pull-off
 ^  = bend (number of semi-tones above)
 /  = slide up/down
 ~  = vibrato
 w  = with whammy bar (number of semi-tones above)
 <> = Natural harmonic

**************************************************************
Suggest correction
comments
print report bad tab
8 comments total. Showing first comments.
+7 reply
playgtr055 40 Mar 12, 2006 07:36 PM

dimebag was and still is such a god.

-1 reply
FullMetalMayhem 20 Jul 26, 2006 02:54 PM

I don't know if this solo is that correct. The power tab version's solo sounds almost perfect.

0 reply
c0ld_3mphasis05 30 Aug 18, 2006 09:02 AM

somebody please export the powertab version to html and post it!

again PLEASE!! linux user here cant install powertab

guest
You may want to rate the tab now too:
select rating
Wanna post a correction for this tab? Suggest correction