Oops, an error
Loading. Please wait.

This Love bass

version 3
version 3
by Pantera
1,646 views 6 this week
no commentswrite comment
1 2 3 4 5
3 more votes to show rating
add to favorites
×
Save as Personal and add changes to this tab that will be seen only by you. Learn more ›
×
You can save this tab as Personal to edit and correct it or add notes. All changes will be seen only by you. Learn more »
launch autoscroll
font size
0
reset
guitar tuner
backing track
0:00
0:00
edit
Autoscroll
slow
fast
+/-
esc
set tempo
stop
#----------------------------------PLEASE NOTE---------------------------------#
#This file is the author's own work and represents their interpretation of the #
#song. You may only use this file for private study, scholarship, or research. #
#------------------------------------------------------------------------------#

THIS LOVE (Bassline)
As recorded by Pantera
(From the 1992 Album VULGAR DISPLAY OF POWER)

Transcribed by cbliss66@aol.com and drums
	

Words and Music by Pantera
Arranged by Pantera

Gtr I (E A D G) - 'Rex'
Gtr II (E A D G) - 'Drums'

 Intro
  Q=100
 4/4
  Gtr I
  Q.    H     E   Q.     H     E   Q.    H     E   Q.     H     E
|---------------|----------------|---------------|----------------|
|---------------|----------------|---------------|----------------|
|---------------|----------------|---------------|----------------|
|-2-----3-----3-|-2------3-----3-|-2-----3-----3-|-2------3-----3-|
|
| Gtr II
| e  Q  e H       E  e E e H       e  Q  e H       E  e E e H
|---------------|----------------|---------------|----------------|
|---------------|----------------|---------------|----------------|
|---------------|----------------|---------------|----------------|
|-x-----x-------|----x---x-------|-x-----x-------|----x---x-------|


  Q.    H     E   Q.     E +H       Q.    H     E   Q.     H     +E
|---------------|-----------------|---------------|-------------------|
|---------------|-----------------|---------------|-------------------|
|-2-----3-------|-2------3-(3)----|---------------|-------------------|
|-------------2-|-----------------|-2-----3-----0-|-2------3-----(3)--|
|
| e  Q  e H       E  e E e  H       e  Q  e H       E  e E e H
|---------------|-----------------|---------------|-------------------|
|---------------|-----------------|---------------|-------------------|
|---------------|-----------------|---------------|-------------------|
|-x-----x-------|----x---x--------|-x-----x-------|----x---x----------|


  Q.    H     E   E E E Q   Q  E
|---------------|-----2----------|
|---------------|---2-------5----|
|-4-----3-----3-|-4-----3------3-|
|---------------|----------------|
|
| e  Q  e H       E e E e H
|---------------|----------------|
|---------------|----------------|
|---------------|----------------|
|-x-----x-------|---x---x--------|


  E E E Q   Q  E      Q.             H      +E
|----------------|------------------------------|
|-----------5----|------------------------------|
|-4-0-4-3------3-|------------------------------|
|----------------|----4--------------5------(5)-|
|
| e Q   e H        a +e  a +e  a +e  q  Q.
|----------------|-x-(x)------------------------|
|----------------|-------x-(x)------------------|
|----------------|-------------x-(x)------------|
|-x-----x--------|-------------------x----------|


               Verse
  +W            Q.     H    E   Q.     Q  Q  E   Q.     H    E
|------------||---------------|----------------|----------------|
|------------||---------------|----------------|----------------|
|------------||---------------|-----------2----|----------------|
|-(5)--------||-2------3----0-|-2------3-----3-|-2------3----0--|
|
|  W            e  H.       E   e  H.        E   e  H.       E
|------------||---------------|----------------|----------------|
|------------||---------------|----------------|----------------|
|------------||---------------|----------------|----------------|
|------------||-x-------------|-x--------------|-x--------------|


  Q.     Q  Q  E   Q.     H      E   E E E E +H        Q.    H      E
|----------------|-----------------|-----------------|-----------------|
|----------------|-----------------|-----------------|-----------------|
|-----------2----|-2------3--------|-2---2-3-(3)-----|-----------------|
|-2------3-----3-|---------------2-|---2-------------|-2-----3------0--|
|
| e  H.        E   e  e Q   q  Q     e e E e  q   Q    q   Q   q  Q
|----------------|----------x------|----------x------|---------x-------|
|----------------|-----------------|-----------------|-----------------|
|----------------|-----------------|-----------------|-----------------|
|-x--------------|-x--x------------|-x-x---x---------|-x---------------|


  E E E E +Q.    E   Q.     H    E   E E E Q  Q  E   E E E Q  Q  E
|------------------|---------------|-----2---------|----------------|
|------------------|---------------|---2------5----|----------5-----|
|---2-4------------|-4------3----3-|-4-----3-----3-|-4-0-4-3-----3--|
|-2-----3-(3)----3-|---------------|---------------|----------------|
|
| e e Q    q   Q     e  H.       E   W               W
|----------x-------|---------------|---------------|----------------|
|------------------|---------------|---------------|----------------|
|------------------|---------------|---------------|----------------|
|-x-x--------------|-x-------------|---------------|----------------|


  Q.   H    +E    Q.   H    E   E E E Q  Q  E   E E E Q  Q  E
|---------------|-------------|-----2---------|----------------|
|---------------|-------------|---2------5----|----------5-----|
|---------------|-4----3----3-|-4-----3-----3-|-4-0-4-3-----3--|
|-4----5----(5)-|-------------|---------------|----------------|
|
| W               W             W               W
|---------------|-------------|---------------|----------------|
|---------------|-------------|---------------|----------------|
|---------------|-------------|---------------|----------------|
|---------------|-------------|---------------|----------------|


                                       $
 6/4
     E     E     E  E +H      +H
|--------------------------------------||
|--------------------------------------||
|--------------------------------------||
|----4-----4-----4--5-(5)-----(5)------||
|
| a +e  a +e  a +e  q     H       Q.
|-x-(x)--------------------------------||
|-------x-(x)--------------------------||
|-------------x-(x)--------------------||
|-------------------x------------------||


 Pre-Chorus
 4/4
  Q.    H     E   E E E Q   Q  E   Q.    H     E
|---------------|----------------|----------------|
|---------------|----------------|----------------|
|---------------|-----4-----2----|----------------|
|-2-----3-----0-|-2-5---3------3-|-2-----3-----0--|
|
| e  Q  e H       E e E e H        e  Q  e H
|---------------|----------------|----------------|
|---------------|----------------|----------------|
|---------------|----------------|----------------|
|-x-----x-------|---x---x--------|-x-----x--------|


                   Chorus
  E E E Q   Q  E    S S Q.     S S Q   E   S S Q.     E. E.     E
|----------------||----------------------|-------------------------|
|----------------||----------------------|-------------------------|
|-----4-----2----||----------------------|------------3--2------0--|
|-2-5---3------3-||-0-2--------0-2-----2-|-0-2---------------------|
|
| E e E e H         s s E  e e s s E e e   s s E  e e e. e   s  e
|----------------||--------x---------x---|--------x----------x-----|
|----------------||----------------------|-------------------------|
|----------------||----------------------|-------------------------|
|---x---x--------||-x-x------x-x-x-----x-|-x-x------x-x--x--(x)-x--|


  S S Q.     S S Q   E   S S Q.         E.     E.     E
|----------------------|----------------------------------|
|----------------------|----------------------------------|
|----------------------|----------------3------2------0---|
|-0-2--------0-2-----2-|-0-2------------------------------|
|
| s s E  e e s s E e e   s s S  s s s e s  s s s  s e   s
|--------x---------x---|----------x-----x------x--x-----x-|
|----------------------|----------------------------------|
|----------------------|----------------------------------|
|-x-x------x-x-x-----x-|-x-x----x---x-x----x-x------x-----|


  S S Q.         S S Q.
|-------------------------------|
|-------------------------------|
|-------------------------------|
|-0-2------------0-2------------|
|
| s e    s S e s s e    s S e s
|-x--------------x--------------|
|-------------------------------|
|-------------------------------|
|---x----x---x-x---x----x---x-x-|


  S S Q.         E.     E.     E   S S Q.         S S Q.
|--------------------------------|-------------------------------|
|--------------------------------|-------------------------------|
|----------------3------2------0-|-------------------------------|
|-0-2----------------------------|-0-2------------0-2------------|
|
| s e    s S e s s  s s s  s s e   s e    s S e s s e    s S e s
|-x--------------x------x------x-|-x--------------x--------------|
|--------------------------------|-------------------------------|
|--------------------------------|-------------------------------|
|---x----x---x-x----x-x----x-x---|---x----x---x-x---x----x---x-x-|


                          To Coda
  S S Q.         E.     E.     E
|----------------------------------||
|----------------------------------||
|----------------3------2------0---||
|-0-2------------------------------||
|
| s e    s S e s s  s s s  s s e
|-x--------------x------x------x---||
|----------------------------------||
|----------------------------------||
|---x----x---x-x----x-x----x-x-----||


  Q.     H      E   Q.     H       E
|-----------------|------------------|
|-----------------|------------------|
|-----------------|------------------|
|-2------3------3-|-2------3-------3-|
|
| e  E e e Q  e e   e  E e e E e e E
|------x------x---|------x-------x---|
|-----------------|------------------|
|-----------------|------------------|
|-x------x------x-|-x------x---x-----|


  Q.     H      E   E E   E   H         E
|-----------------|---------------------------||
|-----------------|---------------------------||
|-----------------|-------4-------------------||
|-2------3------3-|-2-5-------3---------0-----||
|
| e  E e e Q  e e   e S e   e   s e e e s s
|------x------x---|-----x---x---x-x-x-x-x-x---||
|-----------------|---------------------------||
|-----------------|---------------------------||
|-x------x------x-|-x-------------------------||


 Verse
  Q.     H      E   E E E Q   Q   E   Q.     H      E   E E E Q   Q   E
|-----------------|-----------------|-----------------|------------------|
|-----------------|-----------------|-----------------|------------------|
|-----------------|-----4-----2-----|-----------------|-----4-----2------|
|-2------3------0-|-2-5---3-------3-|-2------3------0-|-2-5---3-------3--|
|
| e  E e e Q  e e   e E e e Q   e E   e  E e e Q  e e   e E e e Q   e E
|------x------x---|-----x-------x---|------x------x---|-----x-------x----|
|-----------------|-----------------|-----------------|------------------|
|-----------------|-----------------|-----------------|------------------|
|-x------x------x-|-x-----x---------|-x------x------x-|-x-----x----------|


  Q.     H       E   E E E E +H         Q.     H       E   E E E Q   Q   E
|------------------|------------------|------------------|------------------|
|------------------|---4--------------|------------------|------------------|
|-2------3---------|-2---2-3-(3)------|------------------|-----4-----2------|
|----------------2-|------------------|-2------3-------0-|-2-5---3-------3--|
|
| e  e Q   e Q.      e e E e  e  Q.     e  Q.    e Q.      e e Q   e Q.
|----------x-------|----------x-------|----------x-------|---------x--------|
|------------------|------------------|------------------|------------------|
|------------------|------------------|------------------|------------------|
|-x--x-------------|-x-x---x----------|-x----------------|-x-x--------------|


  Q.      H    E   E E E Q  Q  E   E E E Q  Q  E   Q.   H    +E
|----------------|-----2---------|---------------|----------------|
|----------------|---2------5----|----------5----|----------------|
|-4-------3----3-|-4-----3-----3-|-4-0-4-3-----3-|----------------|
|----------------|---------------|---------------|-4----5----(5)--|
|
| e  H..           W               W               W
|----------------|---------------|---------------|----------------|
|----------------|---------------|---------------|----------------|
|----------------|---------------|---------------|----------------|
|-x--------------|---------------|---------------|----------------|


  Q.   H    E   E E E Q  Q  E   E E E Q  Q  E
|-------------|-----2---------|---------------|
|-------------|---2------5----|----------5----|
|-4----3----3-|-4-----3-----3-|-4-0-4-3-----3-|
|-------------|---------------|---------------|
|
| W             W               W
|-------------|---------------|---------------|
|-------------|---------------|---------------|
|-------------|---------------|---------------|
|-------------|---------------|---------------|


                       D.S. al Coda
 6/4
     Q.             H     +H       +E
|--------------------------------------||
|--------------------------------------||
|--------------------------------------||
|----4--------------5-----(5)------(5)-||
|
| a +e  a +e  a +e  q  H       Q.
|-x-(x)--------------------------------||
|-------x-(x)--------------------------||
|-------------x-(x)--------------------||
|-------------------x------------------||


    &
   4/4
    S S S S S S S S S S S S S S S S
||----------------------------------|
||o-------------4-------------------|
||o-------4-------4-----------------|
||--0-2-2---2-2-----5-2-3-4-5-2-3-5-|
|
|   e   E   e   E   e   e   s e   S
||----------x---------------x-------|
||o---------------------------------|
||o---------------------------------|
||--x---------------x---x-----x-----|


  S  S S S S S S S S S S S Q       S S S S S S S S S S S S S S S S
|--------------------------------|-----------------------------------|
|--------------4-----------------|-------------4---------------------|
|--------4-------4---------------|-------4-------4-------------------|
|-0--2-2---2-2-----5-2-3-5-3-----|-0-2-2---2-2-----5-2-3-4-5-2-3-5---|
|
| e.     s e   E   s e   s e s s   e   E   e   E   e   e   s e   S
|----------x---------x-----x-x-x-|---------x---------------x---------|
|--------------------------------|-----------------------------------|
|--------------------------------|-----------------------------------|
|-x------x---------x-----x-------|-x---------------x---x-----x-------|


                                      6/4                  4/4
                   |--3--| |--3--|
  S  S S S S S S S E E   E E E   E     W         +H         +W
|-----------------------------------||--------------------|--------||
|--------------4-------------------o||--------------------|--------||
|--------4-------4-----------------o||--------------------|--------||
|-0--2-2---2-2-----1-2---3-4-5---6--||-7---------(7)------|-(7)----||
|
|                  |--3--| |--3--|
| e.     s e   E   e s s e e s s e     e W           Q.      W
|----------x-------x----------------||--------------------|--------||
|--------------------------x-------o||--------------------|--------||
|----------------------------------o||--------------------|--------||
|-x------x-----------x-x-x---x-x-x--||-x------------------|--------||


                                                         1.,2.,3.
    E E E E E E E E   E E E E E E E E   E E E E E E E E   E E E E H        4x
||------------------|-----------------|-----------------|------------------||
||o-----------------|-----------------|-----------------|-----------------o||
||o-----------------|-----------------|-----------------|-----------------o||
||--1-3---1-3---1-3-|---1-3---1-4---1-|-3---1-3---1-3---|-1-4---1-1--------||
|
|   e E e E e E e E   e E e E e E e E   e E e E e E e E   e E e E e E e E  4x
||----------x-------|---------x-------|---------x-------|---------x--------||
||o-----------------|-----------------|-----------------|-----------------o||
||o-----------------|-----------------|-----------------|-----------------o||
||--x---x-------x---|-x---x-------x---|-x---x-------x---|-x---x-------x----||


  4.
 6/4                   4/4
  E E E E W             +W            W             W
|---------------------|------------||-------------|--------------|
|---------------------|------------||-------------|--------------|
|---------------------|------------||-------------|--------------|
|-1-4---1-1-----------|-(1)--------||-------------|--------------|
|
| e E e E e H..          W            e Q  e H      E e E e H
|---------x-----------|------------||-------------|--------------|
|---------------------|------------||-------------|--------------|
|---------------------|------------||-------------|--------------|
|-x---x---------------|------------||-x----x------|---x---x------|


  W             W
|-------------|-------------------------||
|-------------|-------------------------||
|-------------|-------------------------||
|-------------|-------------------------||
|
| e Q  e H      E e S s E S s S s e s s
|-------------|---x---x---x-x---x-x-x-x-||
|-------------|-------------------------||
|-------------|-------------------------||
|-x----x------|-------------------------||


 Guitar Solo
  Q   E Q   Q   E   Q.     Q     Q   E
|-----------------|---------------------|
|-----------------|---------------------|
|-----------------|---------------------|
|-2---2-3---0---3-|-2------3-----0---3--|
|
| e E e e Q   e e   e  E e e S s E e e
|-----x-------x---|------x-----x---x----|
|-----------------|---------------------|
|-----------------|---------------------|
|-x-----x-------x-|-x------x---------x--|


  Q.     Q   Q   E   Q.     Q     Q     E
|------------------|------------------------|
|------------------|------------------------|
|------------------|------------------------|
|-2------3---0---3-|-2------3-----0-----3---|
|
| e  E e e Q   e e   e  E e e S s s s e s s
|------x-------x---|------x-----x-----x-x-x-|
|------------------|------------------------|
|------------------|------------------------|
|-x------x-------x-|-x------x-----x-x-------|


  E Q   H      E   E E E E  E E E   E
|----------------|------------5-5-------|
|----------------|---4-----/4-------4---|
|-2-2---3--------|-2---2-3--------------|
|--------------2-|----------------------|
|
| e E e e Q  e E   e e e e  e e s s e
|-----x------x---|-------x------x-x-----|
|----------------|----------------------|
|----------------|----------------------|
|-x-----x--------|-x-x-x----x-x-----x---|


  Q   E Q   Q   E   Q   E Q   Q     E     Q.     H      E   Q.     H       E
|-----------------|---------------------|-----------------|-------------------|
|-----------------|---------------------|-----------------|---------------/9--|
|-----------2-----|-----------2---------|-5------4------4-|-3------2----------|
|-2---2-3-------3-|-2---2-3---------3---|-----------------|-------------------|
|
| e E e e Q   e e   e E e e Q   s e   s   e  E e e Q  e e   e  E e e Q  e  E
|-----x-------x---|-----x-------x-x---x-|------x------x---|------x------x-----|
|-----------------|---------------------|-----------------|-------------------|
|-----------------|---------------------|-----------------|-------------------|
|-x-----x-------x-|-x-----x-------------|-x------x------x-|-x------x----------|


   Q.      Q    Q    E    Q.     Q    Q.
|--------------14------|-------------12--------|
|-12------11--------11-|-10------9-------------|
|----------------------|-----------------------|
|----------------------|-----------------------|
|
|  e  E e  e Q    e  e    e  E e e Q     e s s
|-------x---------x----|-------x---------x-----|
|----------------------|-------------------x-x-|
|----------------------|-----------------------|
|--x-------x---------x-|--x------x-------------|


  Q.     H      E   E E E Q   Q   E
|-----------------|-----------------|
|-----------------|-----------------|
|-----------------|-----4-----2-----|
|-2------3------0-|-2-5---3-------3-|
|
| e  E e e Q  e e   e E e e Q   e E
|------x------x---|-----x-------x---|
|-----------------|-----------------|
|-----------------|-----------------|
|-x------x------x-|-x-----x---------|


  Q.     H      E   E E E   Q       Q     E
|-----------------|-------------------------||
|-----------------|-------------------------||
|-----------------|-----4-----------2-------||
|-2------3------0-|-2-5-----3-------------3-||
|
| e  E e e Q  e e   e E s s s s s s e s s e
|------x------x---|-----x-x-x-x-x-x-x-x-x-x-||
|-----------------|-------------------------||
|-----------------|-------------------------||
|-x------x------x-|-x-----------------------||


 Chorus III
  S S Q.     S S Q   E   S S Q.     E. E.     E
|----------------------|-------------------------|
|----------------------|-------------------------|
|----------------------|------------3--2------0--|
|-0-2--------0-2-----2-|-0-2---------------------|
|
| s s E  e e s s E e e   s s E  e e e. e   s  e
|--------x---------x---|--------x----------x-----|
|----------------------|-------------------------|
|----------------------|-------------------------|
|-x-x------x-x-x-----x-|-x-x------x-x--x--(x)-x--|


  S S Q.     S S Q   E   S S Q.         E.     E.     E
|----------------------|----------------------------------|
|----------------------|----------------------------------|
|----------------------|----------------3------2------0---|
|-0-2--------0-2-----2-|-0-2------------------------------|
|
| s s E  e e s s E e e   s s S  s s s e s  s s s  s e   s
|--------x---------x---|----------x-----x------x--x-----x-|
|----------------------|----------------------------------|
|----------------------|----------------------------------|
|-x-x------x-x-x-----x-|-x-x----x---x-x----x-x------x-----|


  S S Q.         S S Q.
|-------------------------------|
|-------------------------------|
|-------------------------------|
|-0-2------------0-2------------|
|
| s e    s S e s s e    s S e s
|-x--------------x--------------|
|-------------------------------|
|-------------------------------|
|---x----x---x-x---x----x---x-x-|


  S S Q.         E.     E.     E   S S Q.         S S Q.
|--------------------------------|-------------------------------|
|--------------------------------|-------------------------------|
|----------------3------2------0-|-------------------------------|
|-0-2----------------------------|-0-2------------0-2------------|
|
| s e    s S e s s  s s s  s s e   s e    s S e s s e    s S e s
|-x--------------x------x------x-|-x--------------x--------------|
|--------------------------------|-------------------------------|
|--------------------------------|-------------------------------|
|---x----x---x-x----x-x----x-x---|---x----x---x-x---x----x---x-x-|


  S S Q.         E.     E.     E
|----------------------------------||
|----------------------------------||
|----------------3------2------0---||
|-0-2------------------------------||
|
| s e    s S e s s  s s s  s s e
|-x--------------x------x------x---||
|----------------------------------||
|----------------------------------||
|---x----x---x-x----x-x----x-x-----||


    S S S S   S S S S S S S S   S S S S   S S S S   S S S S S S S S Q         4x
||--------------------------------------|-------------------------------------||
||o-------------------------------------|------------------------------------o||
||o-------------------------------------|------------------------------------o||
||--1-3---1---3---1-3---1-3-----1-4---1-|-3---1-3-----1-3---1-3---1-1---------||
|
|   Q       a q       Q       a q         Q       a q       Q       e   e     4x
||----------x-x---------------x-x-------|---------x-x---------------x---x-----||
||o-------------------------------------|------------------------------------o||
||o-------------------------------------|------------------------------------o||
||--x-x-x-x---x-x-x-x-x-x-x-x---x-x-x-x-|-x-x-x-x---x-x-x-x-x-x-x-x-x-x-x-x---||
    s s s s   s s s s s s s s   s s s s   s s s s   s s s s s s s s s s s s


  H      H        H      H          E E E E E E E E   E E E E E E E E
|---------------|---------------||------------------|------------------|
|---------------|---------------||o-----------------|------------------|
|-2-------------|--------3------||o-----------------|------------------|
|--------0------|-1-------------||--1-3---1-3---1-3-|---1-3---1-4---1--|
|
| e Q.   e Q.     e Q.   e Q.       e E e E e E e E   e E e E e E e E
|---------------|---------------||----------x-------|---------x--------|
|---------------|---------------||o-----------------|------------------|
|---------------|---------------||o-----------------|------------------|
|-x------x------|-x------x------||--x---x-------x---|-x---x-------x----|


  E E E E E E E E   E E E E H        4x E E E E E E E E   E E E E E E E E
|-----------------|------------------||-----------------|------------------|
|-----------------|-----------------o||-----------------|------------------|
|-----------------|-----------------o||-----------------|------------------|
|-3---1-3---1-3---|-1-4---1-1--------||-1-3---1-3---1-3-|---1-3---1-4---1--|
|
| e E e E e E e E   e E e E e E e E  4x e E e E e E e E   e E e E e E e E
|---------x-------|---------x--------||---------x-------|---------x--------|
|-----------------|-----------------o||-----------------|------------------|
|-----------------|-----------------o||-----------------|------------------|
|-x---x-------x---|-x---x-------x----||-x---x-------x---|-x---x-------x----|


                                   Outro
        >
  E E E E E E E E   E E E E H       Wx24
|-----------------|--------------||---------*|
|-----------------|--------------||---------*|
|-----------------|--------------||---------*|
|-3---1-3---1-3---|-1-4---1------||---------*|
|
|     >
| e E e E e E e E   e E e E H       W
|---------x-------|--------------||---------*|
|-----------------|--------------||---------*|
|-----------------|--------------||---------*|
|-x---x-------x---|-x---x--------||---------*|



Duration Legend
---------------
W - whole; H - half; Q - quarter; E - 8th; S - 16th; T - 32nd; X - 64th; a - acciaccatura
+ - note tied to previous; . - note dotted; .. - note double dotted
Uncapitalized letters represent notes that are staccato (1/2 duration)
Irregular groupings are notated above the duration line
Duration letters will always appear directly above the note/fret number it represents the
duration for.  Duration letters with no fret number below them represent rests.  Multi-
bar rests are notated in the form Wxn, where n is the number of bars to rest for.  Low
melody durations appear below the staff

Tablature Legend
----------------
 h   - hammer-on
 p   - pull-off
 b   - bend
 pb  - pre-bend
 r   - bend release (if no number after the r, then release immediately)
 /\  - slide into or out of (from/to "nowhere")
 s   - legato slide
 S   - shift slide
 - natural harmonic
[n]  - artificial harmonic
n(n) - tapped harmonic
 ~   - vibrato
 tr  - trill
 T   - tap
 TP  - trem. picking
 PM  - palm muting
\n/  - tremolo bar dip; n = amount to dip
 \n  - tremolo bar down
 n/  - tremolo bar up
/n\  - tremolo bar inverted dip
 =   - hold bend; also acts as connecting device for hammers/pulls
 <> - volume swell (louder/softer)
 x   - on rhythm slash represents muted slash
 o   - on rhythm slash represents single note slash

Misc Legend
-----------
 |  - bar
||  - double bar
||o - repeat start
o|| - repeat end
*|  - double bar (ending)
 :  - bar (freetime)
 $  - Segno
 &  - Coda
Tempo markers -  = BPM(8/16=s8/s16), where s8 = swing 8ths, s16 = swing 16ths


            
            
Suggest correction
Creating personal tab
Creating personal tab
You can edit any tab online and save it as your Personal.

You can edit, replace or remove any tab part or add personal notes – all changes will be seen only by you.

Personal tabs can be accessed anytime from any device, even offline.
Learn more »
Give kudos to tab author, rate the tab!
1 2 3 4 5
comments
print report bad tab
guest
You may want to rate the tab now too:
select rating
Wanna post a correction for this tab? Suggest correction