Oops, an error
Loading. Please wait.
321,631 views 636 this week
40 commentsread comments
1 2 3 4 5
x 46
add to favorites
×
Save as Personal and add changes to this tab that will be seen only by you. Learn more ›
×
You can save this tab as Personal to edit and correct it or add notes. All changes will be seen only by you. Learn more »
launch autoscroll
font size
0
reset
how to read this tab
guitar tuner
backing track
0:00
0:00
edit
Autoscroll
slow
fast
+/-
esc
set tempo
stop
Author
Tuning: DADGBe

[Intro]
e|---------------------------|--------------------------|
B|---------------------------|--------------------------|
G|---------------------------|--------------------------|
D|---------------------------|--------------------------|
A|---------------------------|--------------------------|
D|--0-0-1b2b1-0----0-1b2b1-0-|-0-0-1b2b1-0----0-1b2b1-0-|

e|--------------------------|---------------------------|
B|--------------------------|---------------------------|
G|--------------------------|---------------------------|
D|--------------------------|---------------------------|
A|--------------------------|---------------------------|
D|-0-0-1b2b1-0----0-1b2b1-0-|-0-1b2b1-0----/10/4--/17/--|

[Intro 2/Chorus 1]
e|---------------------|--------------------|--------------------|
B|---------------------|--------------------|--------------------|
G|---------------------|--------------------|--------------------|
D|-------------------8-|------------------6-|------------------6-|
A|-------------------8-|------------------6-|------------------4-|
D|--0-0-1b2b1-0----0-8-|-0-0-1b2b1-0----0-6-|-0-0-1b2b1-0----0-6-|

   PM--|                       PM--|
e|--------------------------|-------------------------|
B|--------------------------|-------------------------|
G|--------------------------|-------------------------|
D|--------------------------|-------------------------|
A|-------1---3---4---3---1--|-------1---3---4---3---1-|
D|-0-0-0-1-0-3-0-4-0-3-0-1--|-0-0-0-1-0-3-0-4-0-3-0-1-|

[Chorus 3 and 4]
e|---------------------|--------------------|--------------------|
B|---------------------|--------------------|--------------------|
G|---------------------|--------------------|--------------------|
D|-------------------8-|------------------6-|------------------6-|
A|-------------------8-|------------------6-|------------------4-|
D|--0-0-1b2b1-0----0-8-|-0-0-1b2b1-0----0-6-|-0-0-1b2b1-0----0-6-|

   PM--|                   x4  PM--|
e|--------------------------|-------------------------|
B|--------------------------|-------------------------|
G|--------------------------|-------------------------|
D|--------------------------|-------------------------|
A|-------1---3---4---3---1--|-------1---3---4---3---1-|
D|-0-0-0-1-0-3-0-4-0-3-0-1--|-0-0-0-1-0-3-0-4-0-3-0-1-|

[Chorus 2]
e|---------------------|--------------------|--------------------|
B|---------------------|--------------------|--------------------|
G|---------------------|--------------------|--------------------|
D|-------------------8-|------------------6-|------------------6-|
A|-------------------8-|------------------6-|------------------4-|
D|--0-0-1b2b1-0----0-8-|-0-0-1b2b1-0----0-6-|-0-0-1b2b1-0----0-6-|

   PM--|                       PM--|                     (x3)            
e|--------------------------|---------------------------|
B|--------------------------|---------------------------|
G|--------------------------|---------------------------|
D|--------------------------|---------------------------|
A|-------1---3---4---3---1--|--------1---3---4---3---1--|
D|-0-0-0-1-0-3-0-4-0-3-0-1--|--0-0-0-1-0-3-0-4-0-3-0-1--|

[Verse]
e|---------------------------|--------------------------|
B|---------------------------|--------------------------|
G|---------------------------|--------------------------|
D|---------------------------|--------------------------|
A|---------------------------|--------------------------|
D|--0-0-1b2b1-0----0-1b2b1-0-|-0-0-1b2b1-0----0-1b2b1-0-|
 
e|--------------------------|--------------------|
B|--------------------------|--------------------|
G|--------------------------|-----------------6--|
D|--------------------------|-----------x-6/4-6--|
A|--------------------------|-----------x-6/4-4--|
D|-0-0-1b2b1-0----0-1b2b1-0-|-0-1b2b1-0-x-6/4----|

[Pre-Chorus]
          |Play 1 and 2 time---------------------------------------------|
e|-------|--------|--------------------------|-------------------------|
B|-------|--------|--------------------------|-------------------------|
G|--5----|--------|--------------------------|-------------------------|
D|--5----|-6-7----|--------------------------|-------------------------|
A|--3----|-6-7----|--------------------------|-------------------------|
D|--5----|-6-7----|-0-0-1b2b1-0----0-1b2b1-0-|-0-1b2b1-0----0-1b2b1-0--|

 |3 time-------------|
e|------|------|-----|
B|------|------|-----|
G|------|------|-----|
D|-6----|-3----|-2-1-|
A|-6----|-3----|-2-1-|
D|-6----|-3----|-2-1-|

[Solo]
e|------------------|-------------------------10----------------------10-------|
B|-13b15---13b15~~~-|-10----10-------------------13p10-------------------13p10-|
G|-12b14-x----------|----13----13p12p12-12h13----------13p12p10h12h13----------|
D|-------x----------|----------------------------------------------------------|
A|------------------|----------------------------------------------------------|
D|------------------|----------------------------------------------------------|
 
e|----------12b13~~~-10-12-------10-14-------10-|
B|-------------------------13b15-------13b15----|
G|-13p12p10-------------------------------------|
D|----------------------------------------------|
A|----------------------------------------------|
D|----------------------------------------------|
 
e|----------10-14p10----10-14p10-10h14p10----10-------------|
B|-13b15~~~----------13-------------------13----13p10p13-10-|
G|----------------------------------------------------------|
D|----------------------------------------------------------|
A|----------------------------------------------------------|
D|----------------------------------------------------------|

                                 w/Whammy Bar-------|             ----|
e|----------------------------------------------------------------------|
B|----10----------------------------------------------------------------|
G|-13----13p12p10----12----10h11-(14)11-(14)11-(14)11-10h11p10----10h11-|
D|----------------12----12-------------------------------------12-------|
A|----------------------------------------------------------------------|
D|----------------------------------------------------------------------|

   ----------|
e|------------------------------------------------|
B|-11----11----------11----11----11---------------|
G|----11----11-10h11----11----11----11-10-11*(15)-|
D|------------------------------------------------|
A|------------------------------------------------|
D|------------------------------------------------|
                                      *Gradually bend Wah-Wah Bar

     8va----------------------------|
                        w/Wah-Wah Bar
e|------|-13-15-16-17b20~~~~~~~~~~~~~-------|------------6-7-6-3-|
B|-x-15-|-----------------------------5-3/5-|-3------------------|
G|-x----|-----------------------------5-3/5-|-3------------------|
D|-x----|-----------------------------------|---5p3-5~~~---------|
A|------|-----------------------------------|--------------------|
D|------|-----------------------------------|--------------------|

                  w/Whammy Bar       PH
e|-----------------------------------------|---------------|
B|-5-5h6p5p3-------------------------------|---------------|
G|-----------4b5b4(9)(4)---------5b7-5b7b5-|-3-0h1/19p0h1/-|
D|-----------------------------x-----------|---------------|
A|-----------------------------x-----------|---------------|
D|-----------------------------------------|---------------|
 
e|-/2-------------------------------|------------------------------------|
B|----------------------------------|------------------------------------|
G|----0h1/12p0-1/12b15b12b15b12-x---|---12-------12-------12-------12----|
D|------------------------------x-8/|12----12/11----11/12----12/11----11/|
A|------------------------------x---|------------------------------------|
D|----------------------------------|------------------------------------|

                      w/Whammy Bar
e|--------------------------------------|---8------1-------14-------17----|
B|--------------------------------------|-7---7/10---10/13----13/16----16/|
G|---12----12----12b14~~~~~~~~~~~~/-----|---------------------------------|
D|12----12----12--------------------12/-|---------------------------------|
A|--------------------------------------|---------------------------------|
D|--------------------------------------|---------------------------------|
 
e|---20----20----20b23-|-PB(20)23b21----|
B|19----19----20-------|-PB(20)22b20----|
G|---------------------|-------------x/-|
D|---------------------|-------------x/-|
A|---------------------|-------------x/-|
D|---------------------|----------------|

(This solo is demanding break it up and learn part by part)

[Outro]
     PM----|          PM----|
e|------------------------------------|
B|------------------------------------|
G|------------------------------------|
D|------------2/1-0------------2/1-0--|  (repeat to fade)
A|------------2/1-0------------2/1-0--|
D|--0--0--0---2/1-0--0--0--0---2/1-0--|


************************************

| x    Dead note
| (n)  Ghost note
| h    Hammer--n
| p    Pull--ff
| b    Bend
| /    Slide up
| ~    Vibrato
|PH    Pinch Harmonic
|PB    Pre-Bend 

************************************
Suggest correction
Creating personal tab
Creating personal tab
You can edit any tab online and save it as your Personal.

You can edit, replace or remove any tab part or add personal notes – all changes will be seen only by you.

Personal tabs can be accessed anytime from any device, even offline.
Learn more »
comments
print report bad tab
40 comments total. Showing first comments.
+1 reply
METAL MAN 5 10 Jun 18, 2007 09:02 AM

Great tab !!!

+1 reply
cmac27 16 Jun 23, 2007 08:26 PM

I think we got a winner! Great tab man!

+6 reply
sueycide 10 Jul 03, 2007 06:27 PM

Great except this song is in DGCFAD but ill just change the chords up. 5/5

guest
You may want to rate the tab now too:
select rating
Wanna post a correction for this tab? Suggest correction