Oops, an error
Loading. Please wait.
We have an official War Nerve tab made by UG professional guitarists. Check out the tab »
×
by Pantera
2,017 views 1 this week
5 commentsread comments
1 2 3 4 5
x 8
add to favorites
×
Save as Personal and add changes to this tab that will be seen only by you. Learn more ›
×
You can save this tab as Personal to edit and correct it or add notes. All changes will be seen only by you. Learn more »
launch autoscroll
font size
0
reset
guitar tuner
backing track
0:00
0:00
edit
Autoscroll
slow
fast
+/-
esc
set tempo
stop
                               Pantera
                               War Nerve


There's no bass tab for this so i thought i'd tab it for you


Tuning: Standard
/ - slide up
\ - slide down
^ - bend


intro
----------------------|
----------------------|
----------------------|
-3/5^-5-3-0-6-5-3-0---|


--------------------|
--------------------|
--------------------|
-1-1--8---7---5---1-| 



---------------------------------------------|  
---------------------------------------------|  
---------------------------------------------|  
-0-0-0-0--0-0-0-0-0-5^-0-0-0-0--0-0-0-0-0-7^-|x2


---------------------------------------------|
---------------------------------------------|
---------------------------------------------|
-0-0-0-0--0-0-0-0-0-8^-0-0-0-0--0-0-0-0-0-9^-|


-----------------------|
-----------------------|
-----------------------|
-0-0-0-0--0-0-0-0-0-9^-|

------------------------|
------------------------|
------------------------|
-0-0-0-0--0-0-0-0-0-10^-|



----------------------------------------------|
------------------------5-7-6-3/5\3-----------|
---5-7-6-3/5\3--5-3-1-0---------------5-3-1-0-|
-0--------------------------------------------|


----------|
----------|
----------|
-10^-0-9^-|

-----------------|
-----------------|
-----------------|
-0-0-0-0-0-0-0-0-| this part is not exactly the amount of times 
                   its played but you should get the drift of it. 

--------------|
--------------|
--------------|
-10^-0-3-5^-0-|

outro
--------------------------|repeat|-------------|
--------------------------|a few |-------------|
--------------------------|times |-------------|
-0-0-0-0-3/6-6-6-6-6-6\1-0|      |-1-1-1-1-1-1-|

            
            
Suggest correction
Creating personal tab
Creating personal tab
You can edit any tab online and save it as your Personal.

You can edit, replace or remove any tab part or add personal notes – all changes will be seen only by you.

Personal tabs can be accessed anytime from any device, even offline.
Learn more »
comments
print report bad tab
5 comments total. Showing first comments.
0 reply
ESPVpr104 20 Jan 13, 2009 05:45 AM

Looks pretty good to me...except the tuning...

0 reply
petey1993 52 Apr 13, 2010 10:22 AM

if you couldn't find it. the tuning is standard. though even that doesn't sound right. it almost sounds likes it in drop D to me

0 reply
petey1993 52 Jun 02, 2010 03:41 PM

i believe the tuning is like the rest of the cd
D-G-C-F

guest
You may want to rate the tab now too:
select rating
Wanna post a correction for this tab? Suggest correction