Oops, an error
Loading. Please wait.

Naruto Themed Sexting Tab

595 views 24 this week
1 commentread comment
1 2 3 4 5
x 3
add to favorites
launch autoscroll
font size
0
reset
how to read this tab
guitar tuner
Autoscroll
slow
fast
+/-
esc
set tempo
stop
Help us to improve Ultimate-Guitar.com Take our survey!
×
Author
Difficulty
Capo
intermediate
3rd fret
This is what I've been able to figure out by ear, but I'm not positive it's 100% correct
 

Capo on the Third Fret

[Intro]

e|-2--0--------------------2--0--------------------2--0----------------------|
B|-------2--0--------------------2--0--------------------2h2-----------------|
G|-------------1--1--1--1--------------1--1--1--1-------------1-1-1-1-1-1-1--|
D|---------------------------------------------------------------------------|
A|-0-0-0-0-0-0-0-0-0-0-0-0-0-0-0-0-0-0-0-0-0-0-0-0-0-0-0---------------------|
E|-----------------------------------------------------------0-0-0-0-0-0-0-0-|

e|---------------0--2--4--2--0-----------------------------------------------|
B|---------0--2-----------------2--------------------------------------------|
G|-2--2--1-------------------------------------------------------------------|
D|---------------------------------------------------------------------------|
A|---------------------------------------------------------------------------|
E|-0-0-0-0-0-0-0-0-0-0-0-0-0-------------------------------------------------|


************************************

| h   Hammer-on

************************************
Suggest correction
Give kudos to tab author, rate the tab!
1 2 3 4 5
comments
print report bad tab
1 comment total.
0 reply
zolithe3rd 10 Nov 07, 2016 03:50 AM

nice dude

guest
You may want to rate the tab now too:
select rating
Wanna post a correction for this tab? Suggest correction