Oops, an error
Loading. Please wait.

Sport Shorts tab

1,153 views 60 this week
2 commentsread comments
1 2 3 4 5
x 4
add to favorites
×
Save as Personal and add changes to this tab that will be seen only by you. Learn more ›
×
You can save this tab as Personal to edit and correct it or add notes. All changes will be seen only by you. Learn more »
launch autoscroll
font size
0
reset
how to read this tab
guitar tuner
edit
Autoscroll
slow
fast
+/-
esc
set tempo
stop
[Intro]

C#|---------------------------------------------------------------------------|
B |---------------------------------------------------------------------------|
F#|---------0-----------0-----------------------------------------------------|(x3)
B |----------------------------------0-2/4p0----------------------------------|
F#|-----5-----------5------------2-----------4\2p0----------------------------|
C#|-3-----------3------------2------------------------------------------------|
End on:
C#|------------------------0--------------------------------------------------|
B |------------------------0--------------------------------------------------|
F#|---------0-----------0--0--------------------------------------------------|
B |------------------------0--------------------------------------------------|
F#|-----5-----------5------5--------------------------------------------------|
C#|-3-----------3----------3--------------------------------------------------|


[Verse]

C#|---------------------------------------------------------------------------|
B |---------------------------------------------------------------------------|
F#|---------------------------------------------------------------------------|(x10)
B |-0-0-0-0-0-0-0-0-0-0-0-0-0-0-0-0-------------------------------------------|
F#|-5-5-5-5-5-5-5-5-2-2-2-2-7-7-7-7-------------------------------------------|
C#|-3-3-3-3-3-3-3-3-2-2-2-2-5-5-5-5-------------------------------------------|


[Bridge]

C#|-------------0-------------------0-------------------2p0---------5-3\2p0---|
B |---------0-------0-----------0-------0-----------0--------0----------------|
F#|-----0-------------------0-------------------0-----------------------------|(x3)
B |---------------------------------------------------------------------------|
F#|--------------------------------------------------------------0------------|
C#|-3-------------------3-------------------2---------------------------------|
End on:
C#|-------------0-------------------0-------2-2-2-2---------------------------|
B |---------0-------0-----------0-------0---0-0-0-0---------------------------|
F#|-----0-------------------0---------------0-0-0-0---------------------------|
B |-----------------------------------------0-0-0-0---------------------------|
F#|-----------------------------------------0-0-0-0---------------------------|
C#|-3-------------------3-------------------3-3-3-3---------------------------|


[Pre-Chorus]

C#|-0-0-0-0-0-0-0-0-0-0-0-0-0-0-0-0-0-0-0-0-0-0-0-0---------------------------|
B |-0-0-0-0-0-0-0-0-0-0-0-0-0-0-0-0-0-0-0-0-0-0-0-0---------------------------|
F#|-2-2-2-2-2-2/4-4-4-4-4-4-0-0-0-0-0-0-0-0-0-0-0-0---------------------------|(x4)
B |-0-0-0-0-0-0-0-0-0-0-0-0-4-4-4-4-4-4-0-0-0-0-0-0---------------------------|
F#|-0-0-0-0-0-0-0-0-0-0-0-0-2-2-2-2-2-2-4-4-4-4-4-4---------------------------|
C#|-3-3-3-3-3-3/5-5-5-5-5-5-2-2-2-2-2-2-2-2-2-2-2-2---------------------------|


[Chorus]

C#|-0-0-0-0-0-0-0-0-0-0-0-0-0--0--0--0--0--0--0-0-0-0-0-0--||--------0--------|
B |-0-0-0-0-0-0-0-0-0-0-0-0-0--0--0--0--0--0--0-0-0-0-0-0--||--------0--------|
F#|-2-2-2-2-2-2/4-4-4-4-4-4/9--9--9--9--9--9-\4-4-4-4-4-4\-||--------5--------|(x3)
B |-0-0-0-0-0-0-0-0-0-0-0-0-0--0--0--0--0--0--0-0-0-0-0-0--||--------0--------|
F#|-0-0-0-0-0-0-0-0-0-0-0-0-0--0--0--0--0--0--0-0-0-0-0-0--||--------7--------|
C#|-3-3-3-3-3-3/5-5-5-5-5-5/10-10-10-10-10-10\5-5-5-5-5-5\-||--------7--------|


[Pre-Verse]

C#|---------------------------------------------------------------------------|
B |---------------------------------------------------------------------------|
F#|---------0-----------0-----------------------------------------------------|(x3)
B |----------------------------------0-2/4p0----------------------------------|
F#|-----5-----------5------------2-----------4\2p0----------------------------|
C#|-3-----------3------------2------------------------------------------------|
End on:
C#|------------------------0--------------------------------------------------|
B |------------------------0--------------------------------------------------|
F#|---------0-----------0--0--------------------------------------------------|
B |------------------------0--------------------------------------------------|
F#|-----5-----------5------5--------------------------------------------------|
C#|-3-----------3----------3--------------------------------------------------|


[Verse]

C#|---------------------------------------------------------------------------|
B |---------------------------------------------------------------------------|
F#|---------------------------------------------------------------------------|(x6)
B |-0-0-0-0-0-0-0-0-0-0-0-0-0-0-0-0-0-0-0-0-0-0-0-0-0-0-0-0-0-0-0-------------|
F#|-5-5-5-5-5-5-5-5-2-2-2-2-7-7-7-7-5-5-5-5-5-5-5-9-9-9-9-7-7-7-7-------------|
C#|-3-3-3-3-3-3-3-3-2-2-2-2-5-5-5-5-3-3-3-3-3-3-3-7-7-7-7-5-5-5-5-------------|
                  A second guitar comes in to play this:
C#|-2/5p0-------0h2---2-7p0--2/5p0-----------0---7p0----------||-0h2p0---0-7p0|
B |-------0---------0--------------0---0---0---0--------------||-------0------|
F#|---------0------------------------0---0--------------------||--------------|
B |-----------------------------------------------------------||--------------|
F#|-----------------------------------------------------------||--------------|
C#|-----------------------------------------------------------||--------------|

[Bridge]

C#|-------------0-------------------0-------------------2p0----------5-3\2p0--|
B |---------0-------0-----------0-------0-----------0--------0----------------|
F#|-----0-------------------0-------------------0-----------------------------|(x4)
B |---------------------------------------------------------------------------|
F#|--------------------------------------------------------------0------------|
C#|-3-------------------3-------------------2---------------------------------|
End on:
C#|-------------0-------------------0-------2-2-2-2---------------------------|
B |---------0-------0-----------0-------0---0-0-0-0---------------------------|
F#|-----0-------------------0---------------0-0-0-0---------------------------|
B |-----------------------------------------0-0-0-0---------------------------|
F#|-----------------------------------------0-0-0-0---------------------------|
C#|-3-------------------3-------------------3-3-3-3---------------------------|


[Pre-Chorus]

C#|-0-0-0-0-0-0-0-0-0-0-0-0-0-0-0-0-0-0-0-0-0-0-0-0---------------------------|
B |-0-0-0-0-0-0-0-0-0-0-0-0-0-0-0-0-0-0-0-0-0-0-0-0---------------------------|
F#|-2-2-2-2-2-2/4-4-4-4-4-4-0-0-0-0-0-0-0-0-0-0-0-0---------------------------|(x4)
B |-0-0-0-0-0-0-0-0-0-0-0-0-4-4-4-4-4-4-0-0-0-0-0-0---------------------------|
F#|-0-0-0-0-0-0-0-0-0-0-0-0-2-2-2-2-2-2-4-4-4-4-4-4---------------------------|
C#|-3-3-3-3-3-3/5-5-5-5-5-5-2-2-2-2-2-2-2-2-2-2-2-2---------------------------|


[Chorus]

C#|-0-0-0-0-0-0-0-0-0-0-0-0-0--0--0--0--0--0--0-0-0-0-0-0---------------------|
B |-0-0-0-0-0-0-0-0-0-0-0-0-0--0--0--0--0--0--0-0-0-0-0-0---------------------|
F#|-2-2-2-2-2-2/4-4-4-4-4-4/9--9--9--9--9--9\-4-4-4-4-4-4\--------------------|(x4)
B |-0-0-0-0-0-0-0-0-0-0-0-0-0--0--0--0--0--0--0-0-0-0-0-0---------------------|
F#|-0-0-0-0-0-0-0-0-0-0-0-0-0--0--0--0--0--0--0-0-0-0-0-0---------------------|
C#|-3-3-3-3-3-3/5-5-5-5-5-5/10-10-10-10-10-10\5-5-5-5-5-5\--------------------|


[Outro]

C#|-0-0-0-0-0-0-0-0-0-0-0-0-0-0-0-0-------------------------------------------|
B |-0-0-0-0-0-0-0-0-0-0-0-0-0-0-0-0---2/4p0-----------------------------------|
F#|-0-0-0-0-0-0-0-0-0-0-0-0-0-0-0-0---x-x-x-4\2p0-----------------------------|(x2)
B |-0-0-0-0-0-0-0-0-0-0-0-0-0-0-0-0---2/4p0-x-x-x-----------------------------|
F#|-5-5-5-5-5-5-5-5-2-2-2-2-2-2-2-2---------4\2p0-----------------------------|
C#|-3-3-3-3-3-3-3-3-2-2-2-2-2-2-2-2-------------------------------------------|


************************************

| x   Dead note
| p   Pull-off
| /   Slide up
| \   Slide down
| ~   Vibrato

************************************
Suggest correction
Creating personal tab
Creating personal tab
You can edit any tab online and save it as your Personal.

You can edit, replace or remove any tab part or add personal notes – all changes will be seen only by you.

Personal tabs can be accessed anytime from any device, even offline.
Learn more »
comments
print report bad tab
2 comments total.
0 reply
wzrdonkey 34 Mar 13, 2017 07:49 PM

either the tuning or the tab is off because i tried both tuning and neither sounded right?

0 reply
wzrdonkey 34 Mar 13, 2017 08:00 PM

wait shit nvm sorry i tuned wrong lmao

guest
You may want to rate the tab now too:
select rating
Wanna post a correction for this tab? Suggest correction