Oops, an error
Loading. Please wait.

Wait You Know Who Frankie Muniz Is Right tab

163 views 15 this week
no commentswrite comment
1 2 3 4 5
3 more votes to show rating
add to favorites
×
Save as Personal and add changes to this tab that will be seen only by you. Learn more ›
×
You can save this tab as Personal to edit and correct it or add notes. All changes will be seen only by you. Learn more »
launch autoscroll
font size
0
reset
how to read this tab
guitar tuner
edit
Autoscroll
slow
fast
+/-
esc
set tempo
stop
[Intro]
e|-0-----------------------------------------------0-----------------------------------------------0-|
A|-0-----------------------------------------------0-----------------------------------------------0-|
G|-4-----------------------------------------------9-----------------------------------------------6-|(x3)
D|-0-----------------------------------------------0-----------------------------------------------0-|
A|-5-----------------------------------------------9-----------------------------------------------7-|
D|-5-----------------------------------------------9-----------------------------------------------7-|

e|-0-----------------------------------------------------------------------------------------------0-|
A|-0-----------------------------------------------------------------------------------------------0-|
G|-9-----------------------------------------------------------------------------------------------3-|(x1)
D|-0-----------------------------------------------------------------------------------------------0-|
A|-9-----------------------------------------------------------------------------------------------4-|
D|-9-----------------------------------------------------------------------------------------------4-|

e|-0--0---------------------0--0--------------------0--0---------------------0--0--------------------|
A|-0--0---------------------0--0--------------------0--0---------------------0--0--------------------|
G|-9--9--6h7p6--------------0--0--------------11br--9--9--6h7p6--------------0--0--------------------|(x1)
D|-9--9--------7/9p0--------5--5--------7/9p0-------9--9--------7/9p0--------5--5--------7p0-------7-|
A|-9--9--------------7/9p0--5--5--0h7h9-------------9--9--------------7/9p0--5--5--0h7h9-----0h7h9---|
D|-0--0---------------------5--5--------------------0--0---------------------5--5--------------------|

[Verse]
e|-0--------------------------------0---------------------------------0----------------------------0-|
A|-0--------------------------------0---------------------------------0----------------------------0-|
G|-9--------------------------------11--------------------------------6----------------------------6-|(x4)
D|-9--------------------------------10--------------------------------0----------------------------0-|
A|-9--------------------------------10--------------------------------5----------------------------7-|
D|-0--------------------------------0---------------------------------5----------------------------7-|

[Pre-Chorus]
e|-0---------------------------------0----------------------------------0-||-0---------------------0-|
A|-0---------------------------------0----------------------------------0-||-0---------------------0-|
G|-9---------------------------------9----------------------------------11||-9---------------------11|(x4)
D|-0---------------------------------0----------------------------------10||-0---------------------0-|
A|-9---------------------------------7----------------------------------10||-9---------------------10|
D|-9---------------------------------7----------------------------------0-||-9---------------------10|

[Chorus]
e|-0---------------------------------0----------------------------------0-||------------0------------|
A|-0---------------------------------0----------------------------------0-||------------0------------|
G|-4---------------------------------9----------------------------------6-||------------6------------|(x4)
D|-0---------------------------------0----------------------------------0-||------------0------------|
A|-5---------------------------------9----------------------------------7-||------------8------------|
D|-5---------------------------------9----------------------------------7-||------------8------------|

[Verse]
                                 PM..............................................................
e|-0--------------------------------0---------------------------------0----------------------------0-|
A|-0--------------------------------0---------------------------------0----------------------------0-|
G|-9--------------------------------11--------------------------------6----------------------------6-|(x1)
D|-9--------------------------------11--------------------------------0----------------------------0-|
A|-9--------------------------------10--------------------------------5----------------------------7-|
D|-0--------------------------------0---------------------------------5----------------------------7-|

e|-0-------------------------------------------------0---------------------------------------------0-|
A|-0-------------------------------------------------0---------------------------------------------0-|
G|-9-------------------------------------------------9---------------------------------------------11|(x1)
D|-9-------------------------------------------------0---------------------------------------------0-|
A|-9-------------------------------------------------9---------------------------------------------10|
D|-0-------------------------------------------------9---------------------------------------------10|

e|-0--------------------------------------------------------------------------0-||-------------------|
A|-0--------------------------------------------------------------------------0-||-------------------|
G|-6--------------------------------------------------------------------------7-||-------------------|(x8)
D|-0--------------------------------------------------------------------------0-||---------0---------|
A|-5--------------------------------------------------------------------------5-||---------0---------|
D|-5--------------------------------------------------------------------------5-||---------0---------|

[Bridge]
e|---------------------------------------------------------------------------------------------------|
A|---------------------------------------------------------------------------------------------------|
G|----------------------------------------7-7h9p7----------------------------------------------------|
D|-0--------7--7/9-7-5\4--0--------7--7/9---------9\7p0--0--------7--7/9-7-5\4h5p4p0-----------------|
A|-0--0h7h9---------------0--0h7h9-----------------------0--0h7h9------------------------------------|
D|-0----------------------0------------------------------0-------------------------------------------|
                                                                                                     (x1)
e|---------------------------------------------------------------------------------------------------|
A|------------------7-9-7----------------------------------------------------------------------------|
G|----------------7-------7--------------------------------------------------------------------------|
D|-0--------7--7/9----------9-7----------------------------------------------------------------------|
A|-0--0h7h9------------------------------------------------------------------------------------------|
D|-0-------------------------------------------------------------------------------------------------|

e|---------------------------------------------------------------------------------------------------|
A|-9-9-7-5-5-5-9-9-7-5-5-5-10-10-9-7-7-10-12-7-8-9-9-7-5-5-5-9-9-7-5-5-5-10-10-5-4-4-4-10-10-10-12---|
G|-x-x-x-x-x-x-x-x-x-x-x-x-x--x--x-x-x-x--x--x-x-x-x-x-x-x-x-x-x-x-x-x-x-x--x--x-x-x-x-x--x--x--x----|(x1)
D|-7-7-5-4-4-4-7-7-5-4-4-4-9--9--7-5-5-9--11-5-6-7-7-5-4-4-4-7-7-5-4-4-4-9--9--7-5-5-5-9--9--9--11---|
A|-0-0-0-0-0-0-0-0-0-0-0-0-0--0--0-0-0-0--0--0-0-0-0-0-0-0-0-0-0-0-0-0-0-0--0--0-0-0-0-0--0--0--0----|
D|-0-0-0-0-0-0-0-0-0-0-0-0-0--0--0-0-0-0--0--0-0-0-0-0-0-0-0-0-0-0-0-0-0-0--0--0-0-0-0-0--0--0--0----|

[Outro]
e|-0-----------------------0----------------------0-------0-------0-------0-------0-------0--------0-|
A|-0-----------------------0----------------------0-------0-------0-------0-------0-------0--------0-|
G|-7-----------------------6----------------------4-------3-------4-------3-------4-------3--------9-|(x2)
D|-0-----------------------0----------------------0-------0-------0-------0-------0-------0--------0-|
A|-9-----------------------7----------------------5-------4-------5-------4-------5-------4--------10|
D|-9-----------------------7----------------------5-------4-------5-------4-------5-------4--------10|

e|-0---------------------------------------0----------------------0---------------0----------------0-|
A|-0---------------------------------------0----------------------0---------------0----------------0-|
G|-7---------------------------------------6----------------------2---------------4----------------6-|(x2)
D|-0---------------------------------------0----------------------0---------------0----------------0-|
A|-9---------------------------------------7----------------------4---------------5----------------7-|
D|-9---------------------------------------7----------------------4---------------5----------------7-|

e|---------------------------------------------------------------------------------------------------|
A|-9-9-7-5-5-5-9-9-7-5-5-5-10-10-9-7-7-10-12-7-8-9-9-7-5-5-5-9-9-7-5-5-5-10-10-9-7-7-7-10-10-10-12---|
G|-x-x-x-x-x-x-x-x-x-x-x-x-x--x--x-x-x-x--x--x-x-x-x-x-x-x-x-x-x-x-x-x-x-x--x--x-x-x-x-x--x--x--x----|(x1)
D|-7-7-5-4-4-4-7-7-5-4-4-4-9--9--7-5-5-9--11-5-6-7-7-5-4-4-4-7-7-5-4-4-4-9--9--7-5-5-5-9--9--9--11---|
A|-0-0-0-0-0-0-0-0-0-0-0-0-0--0--0-0-0-0--0--0-0-0-0-0-0-0-0-0-0-0-0-0-0-0--0--0-0-0-0-0--0--0--0----|
D|-0-0-0-0-0-0-0-0-0-0-0-0-0--0--0-0-0-0--0--0-0-0-0-0-0-0-0-0-0-0-0-0-0-9--0--0-0-0-0-0--0--0--0----|

e|-0---------------------------------------0------------------------0---------------0--------------0-|
A|-0---------------------------------------0------------------------0---------------0--------------0-|
G|-7---------------------------------------6------------------------2---------------4--------------6-|(x2)
D|-0---------------------------------------0------------------------0---------------0--------------0-|
A|-9---------------------------------------7------------------------4---------------5--------------7-|
D|-9---------------------------------------7------------------------4---------------5--------------7-|


************************************

| h   Hammer-on
| p   Pull-off
| r   Release
| b   Bend
| br  Bend release
| /   Slide up
| \   Slide down
| PM  Palm mute

************************************

            
            
Suggest correction
Creating personal tab
Creating personal tab
You can edit any tab online and save it as your Personal.

You can edit, replace or remove any tab part or add personal notes – all changes will be seen only by you.

Personal tabs can be accessed anytime from any device, even offline.
Learn more »
Give kudos to tab author, rate the tab!
1 2 3 4 5
comments
print report bad tab
guest
You may want to rate the tab now too:
select rating
Wanna post a correction for this tab? Suggest correction