Oops, an error
Loading. Please wait.

Jenny Dont Be Hasty Tab

version 1
version 1

Whole song

Interactive

165,878 views 30 this week
14 commentsread comments
1 2 3 4 5
x 32
add to favorites
launch autoscroll
font size
0
reset
how to read this tab
guitar tuner
Autoscroll
slow
fast
+/-
esc
set tempo
stop
Help us to improve Ultimate-Guitar.com Take our survey!
×
-------------------------------------------------------------------------------
                             Jenny Don't Be Hasty - Paolo Nutini
-------------------------------------------------------------------------------
Tabbed by: Chris Nizzle

Tuning: Standard

Sorry, this is the right version, in the chorus you should play A follwed by B, not A 
G. This is the right version!


[Intro]

e|-------------|
B|-------------|
G|-------------|
D|-444444444---|
A|-444444444---|
E|-222222222---|
   Strummed quickly about 20 times


[Intro/Verse 1]

e|----------------7-------------------------|
B|----6-7-6-4-----7--4--4-6-4---------------|
G|----6-7-6-4--------4--4-6-4---------------|   
D|-4--6-7-6-4--44----4--4-6-4-4-------------|
A|-4--4-5-4-2--22----2--2-4-2-4------0------|
E|-2--------------------------2--0-2---2-0--|(x4)
                                [the bass plays this bit
                                 but u can play it if
                                 u want]


[Chorus 1]

e|-5--55--55-55-7-2-22-------|
B|-5--55--55-55-7-2-22-77-77-|
G|-6--66--66-66-8-2-22-77-77-|     
D|-7--77--77-77-9-4-44-77-77-|
A|-7--77--77-77-9-4-44-55-55-|
E|-5--55--55-55-7-2-22-------|(x2)


[Verse 2]

e|----------------7-------------------------|
B|----6-7-6-4-----7--4--4-6-4---------------|
G|----6-7-6-4--------4--4-6-4---------------|    
D|-4--6-7-6-4--44----4--4-6-4-4-------------|
A|-4--4-5-4-2--22----2--2-4-2-4------0------|
E|-2--------------------------2--0-2---2-0--|(x5)
                                [the bass plays this bit
                                 but u can play it if
                                 u want]


[Chorus 2]

e|-5--55--55-55-7-2-22-------|
B|-5--55--55-55-7-2-22-77-77-|
G|-6--66--66-66-8-2-22-77-77-| 
D|-7--77--77-77-9-4-44-77-77-|
A|-7--77--77-77-9-4-44-55-55-|
E|-5--55--55-55-7-2-22-------|(x3)

then

e|-5--55--------------------------|
B|-5--55----------44-44-77-77--9--|
G|-6--66----------44-44-77-77--9--|
D|-7--77--2-22-22-44-44-77-77--9--|
A|-7--77--2-22-22-22-22-55-55--7--|
E|-5--55--0-00-00-----------------|
                               Let the E ring


[Solo]

e|---------------------------------------------------------------------------|
B|----5--------------------5---------------------5----5-----------------5----|
G|-b4---b4----b4r-2---2-b4---b4~----b4r-2---2-b4---b4------b4r-2---2-b4----b4|
D|------------------4---------------------4----------------------4-----------|
A|---------------------------------------------------------------------------|
E|---------------------------------------------------------------------------|

e|-----------------|
B|-----------------|
G|-b4b4b4b4b4b4b4--|
D|-----------------|
A|-----------------|
E|-----------------|


[Chorus 3]

e|-5--55--55-55-7-2-22-------|
B|-5--55--55-55-7-2-22-77-77-|
G|-6--66--66-66-8-2-22-77-77-|   
D|-7--77--77-77-9-4-44-77-77-|
A|-7--77--77-77-9-4-44-55-55-|
E|-5--55--55-55-7-2-22-------|(x3)

then

e|-5--55--------------------------|
B|-5--55----------44-44-77-77--9--|
G|-6--66----------44-44-77-77--9--|
D|-7--77--2-22-22-44-44-77-77--9--|
A|-7--77--2-22-22-22-22-55-55--7--|
E|-5--55--0-00-00-----------------|
                               Let the E ring


[Outro]

e|----------------7-------------------------|
B|----6-7-6-4-----7--4--4-6-4---------------|
G|----6-7-6-4--------4--4-6-4---------------|   
D|-4--6-7-6-4--44----4--4-6-4-4-------------|
A|-4--4-5-4-2--22----2--2-4-2-4------0------|
E|-2--------------------------2--0-2---2-0--|(x3)
                                [the bass plays this bit
                                 but u can play it if
                                 u want]


************************************

| r  Release
| b  Bend
| ~  Vibrato

************************************
Suggest correction
comments
print report bad tab
14 comments total. Showing first comments.
+4 reply
CrazyYaz 725 Sep 17, 2006 08:41 AM

this tab isnt clear enough and it doesnt sound right

-1 reply
uk_tom21 10 Sep 26, 2006 02:10 PM

I think the beginning sounds better like this

e|---------------------------------------------|
B|----------3----------------------------------|
G|----6-7-6-4--44444----4--4-6-4---------------| x4
D|-4--6-7-6-4--44444----4--4-6-4-4-------------|
A|-4--4-5-4-2--22222----2--2-4-2-4------0------|
E|-2-----------------------------2--0-2---2-0--|

0 reply
weetazni 21 Oct 04, 2006 05:43 PM

if you alter it slightly is souns greats like takin ur middle finger oof in the last part of the chorous

guest
You may want to rate the tab now too:
select rating
Wanna post a correction for this tab? Suggest correction