Oops, an error
Loading. Please wait.

Yo Necesito tab

59 views 1 this week
no commentswrite comment
1 2 3 4 5
3 more votes to show rating
add to favorites
×
Save as Personal and add changes to this tab that will be seen only by you. Learn more ›
×
You can save this tab as Personal to edit and correct it or add notes. All changes will be seen only by you. Learn more »
launch autoscroll
font size
0
reset
how to read this tab
guitar tuner
edit
Autoscroll
slow
fast
+/-
esc
set tempo
stop
Un saludo a todos desde Yantzaza-Ecuador para el mundo

INTRO                                          RE
e--------------------------------------------------
B--------------------------------------------------
G----2----4---7-6-4-2-4---4-2-4-7-7-6--4-2-0-2-----
D--4----4------------------------------------------
A--------------------------------------------------
E--------------------------------------------------

       RE                                MIm
Yo necesito, Tus manos blancas, tus ojos grises,
              LA          SOL             RE
tu mirada y aquella habitación de aquel hotel
RE                                        MIm
Fueron entonces, tus besos míos, y tus preguntas,
                LA        SOL           RE
tus suspiros y aquel amanecer, yo te perdí

CORO x 2
          SIm                    SOL
Y desde entonces, te busco sin parar
                         LA              RE
Y siento cada día que mi cuerpo te desea mas
          SIm   SOL                      LA    RE
Presiento que jamás en otros brazos tu serás feliz

e--------------------------------------------------
B--------------------------------------------------
G----2----4---7-6-4-2-4--4-2-4-7-7-6-4-2-0-2-------
D--4----4------------------------------------------
A--------------------------------------------------
E--------------------------------------------------

RE                                     MIm
Yo necesito, de tu presencia, de tu ironía,
                   LA             SOL             RE
de tu inocencia de aquel primer encuentro en un café
RE                                   MIm
Fueron entonces, tus brazos míos, y tus preguntas,
                 LA        SOL          RE
tus suspiros y aquel amanecer, yo te perdí

CORO x 2
          SIm                    SOL
Y desde entonces, te busco sin parar
                         LA              RE
Y siento cada día que mi cuerpo te desea mas
          SIm   SOL                      LA    RE
Presiento que jamás en otros brazos tu serás feliz

e--2-5-2-7--10-9-7-5-7--7-5-7-10-10-9-7-5-3-5------
B--------------------------------------------------
G--------------------------------------------------
D--------------------------------------------------
A--------------------------------------------------
E--------------------------------------------------

CORO
          SIm                    SOL
Y desde entonces, te busco sin parar
                         LA              RE
Y siento cada día que mi cuerpo te desea mas
          SIm   SOL                      LA    RE
Presiento que jamás en otros brazos tu serás feliz....


Aquí les dejo la transcripción de esta canción
y va dedicada a todos mis panas que amantes de la buena musica..

También  quiero dedicarla a una  a persona muy especial
para mi que la quiero y la recuerdo a cada momento
y que siempre estará en mi corazón...
:D ;D
Suggest correction
Creating personal tab
Creating personal tab
You can edit any tab online and save it as your Personal.

You can edit, replace or remove any tab part or add personal notes – all changes will be seen only by you.

Personal tabs can be accessed anytime from any device, even offline.
Learn more »
Give kudos to tab author, rate the tab!
1 2 3 4 5
comments
print report bad tab
guest
Wanna post a correction for this tab? Suggest correction