Oops, an error
Loading. Please wait.

Moonlight Over Paris Tab

version 1
version 1

Whole song

118,600 views 99 this week
3 commentsread comments
1 2 3 4 5
x 26
add to favorites
launch autoscroll
font size
0
reset
how to read this tab
guitar tuner
Autoscroll
slow
fast
+/-
esc
set tempo
stop
Author
Capo
3rd fret
[Intro]

G--C-- (2X)
G--C-Am7/D-

e|------------------------------------------------------------------|
B|---0---------0-----1---0-------------0---------0-----1---0--------|
G|---------2---0-----0---0----0-0------0-----2---0-----0---0----0-0-|
D|-------0---0---0---------2--------0------0---0---0---------2------|
A|-------------------3---3----3-3----------------------3---3----3-3-|
E|---3-3-------3-----------------------3-3-------3------------------|

e|--------------------------------------------------------|
B|---0---------0-----1-------1---1------------------------|
G|---0-----2---0-----0-------0---0------------------------|
D|-------0---0---0---------------0------------------------|
A|-------------------3----3--3----------------------------|
E|---3-3-------3------------------------------------------|

[Verse 1]

D/E-G/E-C-D/E-
D/E-G/E-C-D/E-
F-C-F-C-
D/E-G/E-C-Am7/D-

e|-----------0----------------------------------------0---------|
B|--------3----------------3------------3---------3-------------|
G|-----2----------------0------------0---------2----------------|
D|--0----------------0------------2---------0-------------------|
A|-----------------------------3--------------------------------|
E|----------------0---------------------------------------------|

e|-----------0----------------------------------------0---------|
B|--------3----------------3------------0---------3-------3-----|
G|-----2----------------0------------0---------2--------2-------|
D|--0----------------0------------2---------0---------------0---|
A|-----------------------------3------------------------------0-|
E|----------------0---------------------------------------------|

e|---------------------------------------------------0-----|
B|----------1----------3------------1-----------3--------3-|
G|-------2----------1------------2-----------0-------------|
D|----3----------2------------3-----------2------------2---|
A|------------3------------------------3----------3--------|
E|--1----------------------1-------------------------------|

e|------------0----------------------0---0-----------------|
B|---------3------------3--------3---3---1--1----0h1-------|
G|------2-------------0--------0-------0-0----0------------|
D|---0-------------0---------2-----------0------0----0-----|
A|-------------------------3-------3-----------------------|
E|---------------0-----------------------------------------|

[Chorus 1]

G-G/E-C-G-
G-G/E-C-D/E-
Am7-G/B-C-D/B-
Am7-G/B-C--D- 

e|--------------------------------------------------------------|
B|----------3---3------------3-------3----3---------------3-----|
G|--------0---------0------0-------0---------0------0-2-----2---|
D|------0-----0----------0-------2------2---------0-----0-----0-|
A|-----------------------------3--------------------------------|
E|---3-----------------0------------------------3---------------|

e|------------------------------------------------------0---|
B|--------3---3----------3---3----------3---3---------3-----|
G|------0-------0------0-------0------0-------0-----2-------|
D|----0-----0--------0-----0--------2-----2-------0---------|
A|--------------------------------3-------------------------|
E|--3--------------0----------------------------------------|

e|---------------------------------------------2---------|
B|--------1-----1-----------3--------3--------------3----|
G|------0---0-----0------0---------0--------0-----0------|
D|----2-------2--------0---------2--------0--------------|
A|--0----------------2---------3--------2----------------|
E|-------------------------------------------------------|

e|---------------------0---3---------0-------------|
B|-------1---------3---1---3----1----1-------------|
G|-----0---------0-----0---0----0----0-------------|
D|---2---------0-------2---2---------0-------------|
A|-0---------2---------3---3----3------------------|
E|-------------------------------------------------|

[Interlude]

G--C-- (2X)
G--C-Am7/D-

e|-----------------------------------------------------------|
B|------------0----1--0-----------0--------------1--0--------|
G|------0-2---0----0--0----0-0----0-----2---0----0--0---0-0--|
D|----0-----0---0-------2----0--0-----0---0---0-------2---0--|
A|-----------------3--3----3-3-------------------3--3---3-3--|
E|--3---------3-------------------3-3-------3----------------|

e|---------------------------------------------------------|
B|---0---------0-----1--0-----1---1------------------------|
G|---0-----2---0-----0--0-----0---0------------------------|
D|-------0---0---0----------------0------------------------|
A|-------------------3--3--3--3----------------------------|
E|---3-3-------3-------------------------------------------|

[Verse 2]

D/E-G/E-C-D/E-
D/E-G/E-C-D/E-
F-C-F-C-
D/E-G/E-C-Am7/D-

e|--------0--------2-----------------0h2h0------------|
B|------3--------3----------3------3---------3--------|
G|----2--------0----------0------2---------2---2------|
D|--0-------------------2------0----------------------|
A|--------------------3-------------------------------|
E|-----------0----------------------------------------|

e|--------0----------------------------------------0-------------|
B|------3------3----------3------3--------3------3-----3---------|
G|----2------2---2------0------0--------0------2-------2---------|
D|--0-----------------0------0--------2------0-------0-----------|
A|----------------------------------3---------------------0------|
E|------------------0----------------------------------------0---|

e|-----------------------------------------------------0-------|
B|--------1---1-----------3------1--------1--------3-------3---|
G|------2-------2------0------0---------2--------0-------0-----|
D|----3-----3--------2------2---------3--------2---------------|
A|-----------------3-------------------------3-------3---------|
E|--1----------------------------0--1--------------------------|

e|--------0----------------------------------------0------------|
B|------3-----3---3--------3-----3--------3--------1--1-------1-|
G|----2-----2---2--------0-----0--------0---0------0----0---0---|
D|--0------------------0-----0--------2-------2----0------0-----|
A|----------------------------------3-----------3---------------|
E|-------------------0------------------------------------------| 

[Chorus 2]

G-G/E-C-G-
G-G/E-C-D/E-
Am7-G/B-C-D/B-
Am7-G/B-C--D- 

e|---------------------------------------------------------------|
B|---------3---3---------3-----3--------3---3--------------3-----|
G|-------0-------0-----0-----0--------0-------0------0-2-----2---|
D|-----0-----0-------0-----0--------2-----2--------0-----0-----0-|
A|--------------------------------3------------------------------|
E|---3-------------0-----------------------------3---------------|

e|----------------------------------------------------0---------|
B|--------3---3----------3-----3-------3---3--------1-----1-----|
G|------0-------0------0-----0-------0-------0----0-----0---0---|
D|----0-----0--------0-----0-------2-----2------0---------------|
A|-------------------------------3------------------------------|
E|--3--------------0--------------------------------------------|

 e|-----------------------------------------------------------2----|
B|--------1-----1----------3-----3----------3-----3--------------2-|
G|------0---0-----0------0---0-----0------0---0-----0------0---0---|
D|----2-------2--------0-------0--------2-------2--------0---------|
A|--0----------------2----------------3----------------2-----------|
E|-----------------------------------------------------------------|

e|------------------------------------------------------|
B|--------1--------3--------3--3--1-----1--1-----1------|
G|------0--------0--------0-------0---0----0---0--------|
D|----2--------0--------2-----------2------0-0----------|
A|--0--------2--------3--------3--3---------------------|
E|------------------------------------------------------|

[Instrumental]

e|------------------------------------------------------------------|
B|---0---------0-----1---0-------------0---------0-----1---0--------|
G|---0-----2---0-----0---0----0-0------0-----2---0-----0---0----0-0-|
D|-------0---0---0---------2----0---0------0---0---0---------2------|
A|-------------------3---3----3-3----------------------3---3----3-3-|
E|---3-3-------3-----------------------3-3-------3------------------|

e|--------------------------------------------------------|
B|---0---------0-----1-------1---1-------------1----------|
G|---0-----2---0-----0-------0---0---------0--------------|
D|-------0---0---0---------------0------0-----------------|
A|-------------------3----3--3----------------------------|
E|---3-3-------3------------------------------------------|

e|--------0h2h0------------2-----------------------2-3-2-----------2h3h2-|
B|------3-------3----------3-3---3--------3------3-------3-------3-3-----|
G|----2------------------0---0---0------0------2-----------2---2---------|
D|--0--------------0---0-------0------2------0---------------0-----------|
A|----------------------------------3------------------------------------|
E|-------------------0---------------------------------------------------|

e|----------2-----------------------------------|
B|--3-------3---3---3--3-----3---1----1---------|
G|--0-----0-----0---0----0-------0----0---------|
D|------0-----0---0-0------0----------0---------|
A|-------------------------------3--------------|
E|----0-------------0---------------------------|


Repeat Chorus 2:

[Chorus 2]

G-G/E-C-G-
G-G/E-C-D/E-
Am7-G/B-C-D/B-
Am7-G/B-C--D- 

e|---------------------------------------------------------------|
B|---------3---3---------3-----3--------3---3--------------3-----|
G|-------0-------0-----0-----0--------0-------0------0-2-----2---|
D|-----0-----0-------0-----0--------2-----2--------0-----0-----0-|
A|--------------------------------3------------------------------|
E|---3-------------0-----------------------------3---------------|

e|----------------------------------------------------0---------|
B|--------3---3----------3-----3-------3---3--------1-----1-----|
G|------0-------0------0-----0-------0-------0----0-----0---0---|
D|----0-----0--------0-----0-------2-----2------0---------------|
A|-------------------------------3------------------------------|
E|--3--------------0--------------------------------------------|

 e|-----------------------------------------------------------2----|
B|--------1-----1----------3-----3----------3-----3--------------2-|
G|------0---0-----0------0---0-----0------0---0-----0------0---0---|
D|----2-------2--------0-------0--------2-------2--------0---------|
A|--0----------------2----------------3----------------2-----------|
E|-----------------------------------------------------------------|

e|------------------------------------------------------|
B|--------1--------3--------3--3--1-----1--1-----1------|
G|------0--------0--------0-------0---0----0---0--------|
D|----2--------0--------2-----------2------0-0----------|
A|--0--------2--------3--------3--3---------------------|
E|------------------------------------------------------|

Repeat Intro:

[Intro]

G--C-- (2X)
G--C-Am7/D-

e|------------------------------------------------------------------|
B|---0---------0-----1---0-------------0---------0-----1---0--------|
G|---------2---0-----0---0----0-0------0-----2---0-----0---0----0-0-|
D|-------0---0---0---------2--------0------0---0---0---------2------|
A|-------------------3---3----3-3----------------------3---3----3-3-|
E|---3-3-------3-----------------------3-3-------3------------------|

e|--------------------------------------------------------|
B|---0---------0-----1-------1---1------------------------|
G|---0-----2---0-----0-------0---0------------------------|
D|-------0---0---0---------------0------------------------|
A|-------------------3----3--3----------------------------|
E|---3-3-------3------------------------------------------|

[Outro]

e|-------3-------------------------------3---------2--------3--|
B|---1---1---3-----3--------3--1-----1---1-------0---0------3--|
G|---0---0-------0--------0----0---0-----0-----0-------0----0--|
D|-------0-----0--------0--------2-------0---0-----------0--0--|
A|---3----------------2--------3----------------------------2--|
E|-----------3-----------------------------3----------------3--|




"Moonlight Over Paris"

Intro: du dudu...


[Verse 1]

You say you've been overseas
I say over where
You say just a holiday
My Alsatian heir
I say I've been working late, working overtime
Haven't seen the sun since sixty-nine

[Chorus 1]

Does the moonlight shine on Paris
After the sun goes down
If the London Bridge is falling
Will anybody hear a sound
If you follow the sunset will it ever end
Oh does the moonlight shine on Paris 
Ohhh Ohhh ....

[Verse 2]

Oh and how can you just walk away
Is it something that I said
I see only black and white
You see green and red
You believe in the miracles
Water into wine
I believe when it makes the New York Times 

[Chorus 2]

Does the moonlight shine on Paris
After the sun goes down
If the London Bridge is falling
Will anybody hear a sound
If you follow the sunset will it ever end
Does the moonlight shine on Paris
Suggest correction
comments
print report bad tab
3 comments total.
0 reply
kiel_rs 164 May 04, 2006 09:44 AM

asteeeeeg! haha :D

0 reply
Brainfreezer 10 Sep 29, 2009 08:55 AM

tama ka asteeeeeeeeeeg nga tlaga,hehehehe., thank you very much sa tab

0 reply
romenick23 246 Sep 13, 2013 05:27 AM

nice :)
tnx!

guest
You may want to rate the tab now too:
select rating
Wanna post a correction for this tab? Suggest correction