Oops, an error
Loading. Please wait.

Arundel tab

version 1
version 1

Whole song

by Papa M
1,400 views 3 this week
no commentswrite comment
1 2 3 4 5
2 more votes to show rating
add to favorites
×
Save as Personal and add changes to this tab that will be seen only by you. Learn more ›
×
You can save this tab as Personal to edit and correct it or add notes. All changes will be seen only by you. Learn more »
launch autoscroll
font size
0
reset
how to read this tab
guitar tuner
edit
Autoscroll
slow
fast
+/-
esc
set tempo
stop
Difficulty
intermediate
                                  [Arundel by Papa M]
-----------------------------------------------------------------------------------------------
                         [Track 1 from Live From a Shark's Cage]

Transcribed by Christopher Steenson

And it goes like this:

e|---------------------------------|
B|---------------------------------|
G|---4-3---------------------------|  [x2]
D|-------1---------/6--------------|
A|---2----------------7------------|
E|-------2-(2)-(2)-/7--------------|(7)-(7)-(7)


Hold down the chord shapes to help give it the ringing effect on the recording,
all the notes in brackets should be played quietly.
On the second repeat add in another quiet B note at the end before
going into this:


e|------------------------------------------------------------|
B|-----------------------------------------9------------------|
G|-------------------------------6-8-9-8-------------------8--|  and let the
D|---1-2-------------8-9-------9---9-----9--------------------|  feedback run
A|-4---4----------11---11-------------------------------------|  free...
E|-------(0)-(0)-(0)--(0)-(0)-(0)---------(0)-(0)-(0)-(0)-(0)-|


Again try and hold down those chords as much as possible to let
them ring out. I've noted the bass notes as quite but they are
louder than in the previous figure, s'all a game of interpretation.


That's it! All 1 minute and 7 seconds.


Comment for any questions/corrections etc.

            
            
Suggest correction
Creating personal tab
Creating personal tab
You can edit any tab online and save it as your Personal.

You can edit, replace or remove any tab part or add personal notes – all changes will be seen only by you.

Personal tabs can be accessed anytime from any device, even offline.
Learn more »
Give kudos to tab author, rate the tab!
1 2 3 4 5
comments
print report bad tab
guest
Wanna post a correction for this tab? Suggest correction