Oops, an error
Loading. Please wait.

Roadrunner tab

by Papa M
190 views 3 this week
no commentswrite comment
1 2 3 4 5
3 more votes to show rating
add to favorites
×
Save as Personal and add changes to this tab that will be seen only by you. Learn more ›
×
You can save this tab as Personal to edit and correct it or add notes. All changes will be seen only by you. Learn more »
launch autoscroll
font size
0
reset
how to read this tab
guitar tuner
edit
Autoscroll
slow
fast
+/-
esc
set tempo
stop
-------------------------------------------------------------------------------
                             Song: Roadrunner
                             Artist: Papa M
                             Album: Live From a Shark's Cage
-------------------------------------------------------------------------------
Tabbed by: Bryan Killingsworth
E-mail: 7thharm@gmail.com

NOTE: on the album it's pitched a whole step higher than I have it (so...capo on 2nd)...
but on tour this was done in C tuning. Thanks David Pajo for making such mesmerizing guitar music and to 
the youtube users who posted live performances of this, which made it a lot easier to figure out.

fingerpicked
let notes ring throughout

Tuning: CGCFCe (+ capo on 2nd fret to play along with the album)

e|-0--------------------|
C|-----0-----0---0---0--|
F|---6-----6---6---6----|
C|-------7--------------| (fades in and repeat many times)
G|-0--------------------|
C|----------------------|

...at 01:18...

e|-0--------------------|
C|-----0-----0---0---0--|
F|---9-----9---9---9----|
C|-------7--------------| (x3)
G|-0--------------------|
C|----------------------|

e|-0-------------------0----|
C|-----0-----0---0-------0--|
F|---9-----9---9---9/12-----|
C|-------7------------------|  
G|-0------------------------|
C|--------------------------|

e|-0--------------------|
C|-----0-----0---0---0--|
F|---6-----6---6---6----|
C|-------7--------------| (x4)
G|-0--------------------|
C|----------------------|

e|-0--------------------|
C|-----0-----0---0---0--|
F|---9-----9---9---9----|
C|-------7--------------| (x3)
G|-0--------------------|
C|----------------------|

e|-0-------------------0----|
C|-----0-----0---0-------0--|
F|---9-----9---9---9/12-----|
C|-------7------------------|  
G|-0------------------------|
C|--------------------------|

e|-0--------------------|
C|-----0-----0---0---0--|
F|---6-----6---6---6----|
C|-------7--------------| (x4)
G|-0--------------------|
C|----------------------|

e|---3-5----------------------|
C|-5-----4-0-----------2p0----|
F|-----------4p0--------------|
C|---------------5/7p0-----0--| 
G|---------------0------------|
C|-5-----0--------------------|

e|---------0---------------5-3h5p3-0-------------------------------|
C|------------0-11h12----0--0--------0-----0---5p4-0---------------|
F|-12/14--------------14---------------0-----0-------0-------------|
C|-------0-------------------------------4---------------0---------|  
G|-----------------------------------------------------4---2---0---|
C|-----------------------------------------------------------4---0-|

e|---------0---------------5-3h5p3-0-----|
C|------------0-11h12----0--0--------0---|
F|-12/14--------------14-----------------|
C|-------0-------------------------------|  
G|---------------------------------------|
C|---------------------------------------|

e|---3-5----------------------|
C|-5-----4-0-----------2p0----|
F|-----------4p0--------------|
C|---------------5/7p0-----0--| 
G|---------------0------------|
C|-5-----0--------------------|

e|---------0---------------5-3h5p3-0-------------------------------|
C|------------0-11h12----0--0--------0-----0---5p4-0---------------|
F|-12/14--------------14---------------0-----0-------0-------------|
C|-------0-------------------------------4---------------0---------|  
G|-----------------------------------------------------4---2---0---|
C|-----------------------------------------------------------4---0-|

e|---------0---------------5-3h5p3-0-----|
C|------------0-11h12----0--0--------0---|
F|-12/14--------------14-----------------|
C|-------0-------------------------------|  
G|---------------------------------------|
C|---------------------------------------|

e|---3-5----------------------|
C|-5-----4-0-----------2p0----|
F|-----------4p0--------------|
C|---------------5/7p0-----0--| 
G|---------------0------------|
C|-5-----0--------------------|

e|---3-5----------------------|
C|-5-----4-0-----------2p0----|
F|-----------4p0--------------|
C|---------------5/7p0-----0--| 
G|---------------0------------|
C|-5-----0--------------------|

e|-0--------------------|
C|-----0-----0---0---0--|
F|---6-----6---6---6----|
C|-------7--------------| (x8)
G|-0--------------------|
C|----------------------|

e|-0--------------------|
C|-----0-----0---0---0--|
F|---9-----9---9---9----|
C|-------7--------------| (x3)
G|-0--------------------|
C|----------------------|

e|-0-------------------0----|
C|-----0-----0---0-------0--|
F|---9-----9---9---9/12-----|
C|-------7------------------|  
G|-0------------------------|
C|--------------------------|

e|-0--------------------|
C|-----0-----0---0---0--|
F|---6-----6---6---6----|
C|-------7--------------| (x4)
G|-0--------------------|
C|----------------------|

e|-0--------------------|
C|-----0-----0---0---0--|
F|---9-----9---9---9----|
C|-------7--------------| (x3)
G|-0--------------------|
C|----------------------|

e|-0-------------------0----|
C|-----0-----0---0-------0--|
F|---9-----9---9---9/12-----|
C|-------7------------------|  
G|-0------------------------|
C|--------------------------|

e|-0--------------------|
C|-----0-----0---0---0--|
F|---6-----6---6---6----|
C|-------7--------------| (x4)
G|-0--------------------|
C|----------------------|

e|---3-5----------------------|
C|-5-----4-0-----------2p0----|
F|-----------4p0--------------|
C|---------------5/7p0-----0--| 
G|---------------0------------|
C|-5-----0--------------------|

e|---------0---------------5-3h5p3-0-------------------------------|
C|------------0-11h12----0--0--------0-----0---5p4-0---------------|
F|-12/14--------------14---------------0-----0-------0-------------|
C|-------0-------------------------------4---------------0---------|  
G|-----------------------------------------------------4---2---0---|
C|-----------------------------------------------------------4---0-|

e|---------0---------------5-3h5p3-0-----|
C|------------0-11h12----0--0--------0---|
F|-12/14--------------14-----------------|
C|-------0-------------------------------|  
G|---------------------------------------|
C|---------------------------------------|

e|---3-5----------------------|
C|-5-----4-0-----------2p0----|
F|-----------4p0--------------|
C|---------------5/7p0-----0--| 
G|---------------0------------|
C|-5-----0--------------------|

e|---------0---------------5-3h5p3-0-------------------------------|
C|------------0-11h12----0--0--------0-----0---5p4-0---------------|
F|-12/14--------------14---------------0-----0-------0-------------|
C|-------0-------------------------------4---------------0---------|  
G|-----------------------------------------------------4---2---0---|
C|-----------------------------------------------------------4---0-|

e|---------0---------------5-3h5p3-0-----|
C|------------0-11h12----0--0--------0---|
F|-12/14--------------14-----------------|
C|-------0-------------------------------|  
G|---------------------------------------|
C|---------------------------------------|

e|---3-5----------------------|
C|-5-----4-0-----------2p0----|
F|-----------4p0--------------|
C|---------------5/7p0-----0--| 
G|---------------0------------|
C|-5-----0--------------------|

e|---3-5----------------------|
C|-5-----4-0-----------2p0----|
F|-----------4p0--------------|
C|---------------5/7p0-----0--| 
G|---------------0------------|
C|-5-----0--------------------|

e|---3-5----------------------|
C|-5-----4-0-----------2p0----|
F|-----------4p0--------------|
C|---------------5/7p0-----0--| 
G|---------------0------------|
C|-5-----0--------------------|

...then ritard (slow down) on this last one....

e|---3-5----------------------|
C|-5-----4-0-----------2/4----|
F|-----------4p0--------------|
C|---------------5/7p0-----0--|  
G|---------------0------------|
C|-5-----0--------------------|

FIN


************************************

| /   slide up
| \   slide down
| h   hammer-on
| p   pull-off
| ~   vibrato
| +   harmonic
| x   Mute note
| b   Bend
| pb  Pre-bend
| br  Bend release
| pbr Pre-bend release
| brb Bend release bend

************************************

            
            
Suggest correction
Creating personal tab
Creating personal tab
You can edit any tab online and save it as your Personal.

You can edit, replace or remove any tab part or add personal notes – all changes will be seen only by you.

Personal tabs can be accessed anytime from any device, even offline.
Learn more »
Give kudos to tab author, rate the tab!
1 2 3 4 5
comments
print report bad tab
guest
You may want to rate the tab now too:
select rating
Wanna post a correction for this tab? Suggest correction