Oops, an error
Loading. Please wait.

Alive N Out Of Control Bass Tab

version 1
version 1

Whole song

Interactive

2,332 views 1 this week
no commentswrite comment
1 2 3 4 5
please rate
add to favorites
launch autoscroll
font size
0
reset
guitar tuner
Autoscroll
slow
fast
+/-
esc
set tempo
stop
Help us to improve Ultimate-Guitar.com Take our survey!
×
Author
Difficulty
Tuning
intermediate
D A D G B E
Song: Alive (N' Out Of Control)
Band: Papa Roach
Album: The Paramour Sessions


Tuning: Drop D ( D A D G)

Just guitar for 16 seconds then bass enters

Intro:
|--------------------------|
|--------------------------|
|-----3----3-------------3-|
|-0-0--0-0---0-0-0-0-0-0---|

|--------------------------|
|--------------------------|
|-----5----5-------------5-|
|-0-0--0-0---0-0-0-0-0-0---|

|---------------------------|
|---------------------------|
|---------------------------|
|-0-0-5-0-0-5-0-0-0-0-0-0-5-|

|---------------------------|
|---------------------------|
|---------------------------|
|-0-0-3-0-0-3-0-0-0-0-0-0-3-|

|--------------------------|
|--------------------------|
|-----3----3-------------3-|
|-0-0--0-0---0-0-0-0-0-0---|

|--------------------------|
|--------------------------|
|-----5----5-------------5-|
|-0-0--0-0---0-0-0-0-0-0---|

|---------------------------|
|---------------------------|
|---------------------------|
|-0-0-5-0-0-5-0-0-0-0-0-0-5-|

|-----------------------------|
|-----------------------------|
|-----------------------------|
|-0-0-3-0-0-3-0-0-0-0-0-0-0-0-|

Verse 1:
|----------------------|
|----------------------|
|----------------------|
|-0-0----0-0--0-0--0-0-|

|---------------------|
|---------------------|
|---------------------|
|0-0----0-0--0-0--0-0-|

Repeat Verse 1

Pre-Chorus:
No bass here

Chorus:
|-----------------------------------------|
|-----------------------------------------|
|--3--3-3-3--5--5-5-5---------------------|
|----------------------5--5-5-5--3--3-3-3-|

|--------------------------------------------------------|
|--------------------------------------------------------|
|--3--3-3-3--5--5-5-5------------------------------------|
|----------------------5--5-5-5--0-0-3-0-0-3-0-0-3-0-0-3-|

Verse 2:
|----------------------|
|----------------------|
|----------------------|
|-0-0----0-0--0-0--0-0-|

|---------------------|
|---------------------|
|---------------------|
|0-0----0-0--0-0--0-0-|

Repeat Verse 2

Repeat Pre-Chorus

Chorus 2:
|-----------------------------------------|
|-----------------------------------------|
|--3--3-3-3--5--5-5-5---------------------|
|----------------------5--5-5-5--3--3-3-3-|

|-------------------------------|
|-------------------------------|
|--3--3-3-3--5--5-5-5-----------|
|----------------------5--5-5-5-|

|------------------------------------------------|
|------------------------------------------------|
|------------------------------------------------|
|0-0-3-0-0-3-0-0-3-0-0-3-0-0-3-0-0-3-0-0-3-0-0-3-|

Bridge:
|----------------------|
|----------------------|
|----------------------|
|-0-0----0-0--0-0--0-0-|

|---------------------|
|---------------------|
|---------------------|
|0-0----0-0--0-0--0-0-|

|-----------|
|-----------|
|-----------|
|-0-0-0-0-0-|

|----------------------|
|----------------------|
|----------------------|
|-0-0----0-0--0-0--0-0-|

|---------------------|
|---------------------|
|---------------------|
|0-0----0-0--0-0--0-0-|

Interlude into guitar solo:
|-------------------------------------|
|-------------------------------------|
|-3--------5--------------------------| x2
|---------------------5-------3-------|

Guitar Solo section same as intro

Repeat Chorus 1
Repeat Intro

End on:
|-----
|-----
|-----
|-0-0-
Suggest correction
Give kudos to tab author, rate the tab!
1 2 3 4 5
comments
print report bad tab
guest
You may want to rate the tab now too:
select rating
Wanna post a correction for this tab? Suggest correction