Oops, an error
Loading. Please wait.

Alive N Out Of Control Bass Tab

version 3
version 3

Whole song

Interactive

96 views 1 this week
no commentswrite comment
1 2 3 4 5
please rate
add to favorites
launch autoscroll
font size
0
reset
guitar tuner
Autoscroll
slow
fast
+/-
esc
set tempo
stop
Help us to improve Ultimate-Guitar.com Take our survey!
×
Author
                           | Alive N' Out Of Control - Papa Roach |

Tabbed by: AustinG013
E-mail: agodfrey1996@aol.com

Tuning: C G C F

This is the first song I've tabbed, tell me what you think

Intro: play the first two bars 2 times, at the end of bar two when playing the 2nd time, 
play the 3rd bar
F|-----------------------------------------------------------|
C|-----------------------------------------------------------|
G|-----5------5--------------5------8------8--------------8--|
C|-0-0----0-0----0-0-0-0-0-0----0-0----0-0----0-0-0-0-0-0----|
   x x    x x    x x x x x x    x x    x x    x x x x x x
F|-----------------------------------------------------------|
C|-----------------------------------------------------------|
G|-----------------------------------------------------------|
C|-0-0-8--0-0-8--0-0-0-0-0-0-8--0-0-5--0-0-5--0-0-0-0-0-0-5--|
   x x    x x    x x x x x x    x x    x x    x x x x x x
F|-----------------|
C|-----------------|
G|-----------------|
C|-0-0-0-0-0-0-0-0-|
   x x x x x x x x

Verse: play 4 times
F|----------------------|
C|----------------------|
G|----------------------|
C|-0-0----0-0--0-0--0-0-|


Pre-Chorus:
F|-----------------------------------------------------------------|
C|-----------------------------------------------------------------|
G|-------------------------------------------------------------5---|
C|-0-0-3-0-2-0-3-0-5-0-0-3-0-0-2-3-0-0-3-0-2-0-3-0-5-0-0-3-0-0-----|

F|-----------------------------------------------------------------|
C|-----------------------------------------------------------------|
G|-----------------------------------------------------------------|
C|-0-0-3-0-2-0-3-0-5-0-0-3-0-0-2-3-0-0-3-0-2-0-3-0-0-0-0-0-0-0-0-0-|
                                                   x x x x x x x x

Chorus: play 2 times, play the 3rd bar at the end of the 2nd time
F|--------------------------------------|
C|--------------------------------------|
G|-----5--------5-----------8--------8--|
C|-0-0------0-0---------0-0------0-0----|

F|--------------------------------------|
C|--------------------------------------|
G|--------------------------------------|
C|-0-0-8----0-0-8-------0-0-5----0-0-5--|

F|-----------------------------|
C|-----------------------------|
G|-----------------------------|
C|-0-0-5--0-0-5--0-0-5--0-0-5--|
   x x    x x    x x    x x

Verse: play 4 times
F|----------------------|
C|----------------------|
G|----------------------|
C|-0-0----0-0--0-0--0-0-|


Pre-Chorus:
F|-----------------------------------------------------------------|
C|-----------------------------------------------------------------|
G|-------------------------------------------------------------5---|
C|-0-0-3-0-2-0-3-0-5-0-0-3-0-0-2-3-0-0-3-0-2-0-3-0-5-0-0-3-0-0-----|

F|-----------------------------------------------------------------|
C|-----------------------------------------------------------------|
G|-----------------------------------------------------------------|
C|-0-0-3-0-2-0-3-0-5-0-0-3-0-0-2-3-0-0-3-0-2-0-3-0-0-0-0-0-0-0-0-0-|
                                                   x x x x x x x x

Chorus: play 2 times, play the 3rd bar at the end of the 2nd time
F|--------------------------------------|
C|--------------------------------------|
G|-----5--------5-----------8--------8--|
C|-0-0------0-0---------0-0------0-0----|

F|--------------------------------------|
C|--------------------------------------|
G|--------------------------------------|
C|-0-0-8----0-0-8-------0-0-5----0-0-5--|

F|---------------------------------------------------------|
C|---------------------------------------------------------|
G|---------------------------------------------------------|
C|-0-0-5--0-0-5--0-0-5--0-0-5--0-0-5--0-0-5--0-0-5--0-0-5--|
   x x    x x    x x    x x    x x    x x    x x    x x

Verse: play 4 times
F|----------------------|
C|----------------------|
G|----------------------|
C|-0-0----0-0--0-0--0-0-|


Bridge: play 2 times
F|---------------------------------------------|
C|---------------------------------------------|
G|-5---5------8---8------10---10------12---12--|
C|---------------------------------------------|


Solo: play the first two bars 2 times, at the end of bar two when playing the 2nd time, 
play the 3rd bar
F|-----------------------------------------------------------|
C|-----------------------------------------------------------|
G|-----5------5--------------5------8------8--------------8--|
C|-0-0----0-0----0-0-0-0-0-0----0-0----0-0----0-0-0-0-0-0----|
   x x    x x    x x x x x x    x x    x x    x x x x x x
F|-----------------------------------------------------------|
C|-----------------------------------------------------------|
G|-----------------------------------------------------------|
C|-0-0-8--0-0-8--0-0-0-0-0-0-8--0-0-5--0-0-5--0-0-0-0-0-0-5--|
   x x    x x    x x x x x x    x x    x x    x x x x x x
F|-----------------|
C|-----------------|
G|-----------------|
C|-0-0-0-0-0-0-0-0-|
   x x x x x x x x

Chorus: play 2 times, play the 3rd bar at the end of the 2nd time
F|--------------------------------------|
C|--------------------------------------|
G|-----5--------5-----------8--------8--|
C|-0-0------0-0---------0-0------0-0----|

F|--------------------------------------|
C|--------------------------------------|
G|--------------------------------------|
C|-0-0-8----0-0-8-------0-0-5----0-0-5--|

F|-----------------------------|
C|-----------------------------|
G|-----------------------------|
C|-0-0-5--0-0-5--0-0-5--0-0-5--|


Outro: play the first two bars 2 times, at the end of bar two when playing the 2nd time, 
play the 3rd bar
F|-----------------------------------------------------------|
C|-----------------------------------------------------------|
G|-----5------5--------------5------8------8--------------8--|
C|-0-0----0-0----0-0-0-0-0-0----0-0----0-0----0-0-0-0-0-0----|
   x x    x x    x x x x x x    x x    x x    x x x x x x
F|-----------------------------------------------------------|
C|-----------------------------------------------------------|
G|-----------------------------------------------------------|
C|-0-0-8--0-0-8--0-0-0-0-0-0-8--0-0-5--0-0-5--0-0-0-0-0-0-5--|
   x x    x x    x x x x x x    x x    x x    x x x x x x
F|-----------------|
C|-----------------|
G|-----------------|
C|-0-0-0-0-0-0-0-0-|
   x x x x x x x x





| /  slide up
| \  slide down
| h  hammer-on
| p  pull-off
| ~  vibrato
| +  harmonic
| x  Mute note
===============================================================================
Suggest correction
Give kudos to tab author, rate the tab!
1 2 3 4 5
comments
print report bad tab
guest
You may want to rate the tab now too:
select rating
Please do not post tabs as comments. Select "correction" instead!