Oops, an error
Loading. Please wait.

Between Angels And Insects Bass Tab

version 3
version 3

Interactive

5,912 views 3 this week
1 commentread comment
1 2 3 4 5
accurate
x 4
add to favorites
launch autoscroll
font size
0
reset
guitar tuner
Autoscroll
slow
fast
+/-
esc
set tempo
stop
Help us to improve Ultimate-Guitar.com Take our survey!
×
Difficulty
intermediate
Tuning: B,D,A,D,G


About A 24 Second Wait In Guitar Intro.

The 10 Are Tens In The Chorus's, And They Are 1 And 0 In Verse!!!
GET IT RIGHT!!!

Intro
G-----------------------------------------------------------------------|
D-----------------------------------------------------------------------|
A-----------------------------------------------------------------------|
D-0000----------0000----------7777--10101010101010--7777-10101010101010-|
B------0000000-------0000000--------------------------------------------|


G----------------------------------------------------------------------|
D----------------------------------------------------------------------|
A----------------------------------------------------------------------|
D-0000---------0000---------7777-88888888-3333-1111111-----------------|
B------0000000------0000000--------------------------------------------|

Verse
G----------------------------------------------------------------|
D----------------------------------------------------------------|
A-------------------------00000------011111--1-h3-1-h3-1-h3  (*3-|
D-00000---01033333---0103-------0103-----------------------------|
B----------------------------------------------------------------|

Chorus
G---------------------------------------------------------------------------|
D---------------------------------------------------------------------------|
A---------------------------------------------------------------------------|
D-0000---------0000---------7777-10101010101010---7777-10101010101010-(12---|0)
B------0000000------0000000-------------------------------------------------|

Verse
G---------------------------------------------------------------|
D---------------------------------------------------------------|
A-------------------------00000-----011111---1-h3-1-h3-1-h3 (*2-|
D-00000---01033333---0103-------0103----------------------------|
B---------------------------------------------------------------|

Chorus
G--------------------------------------------------------------------------|
D--------------------------------------------------------------------------|
A--------------------------------------------------------------------------|
D-0000---------0000---------7777-10101010101010-7777-10101010101010--(12---|0)
B------0000000------0000000------------------------------------------------|

Bridge
G----------------------------|
D----------------------------|
A----------------------------|
D--0-----8-----7-----10------|
B----------------------------|

Bass Solo
G------------------------------------------------------------|
D-----------5-3-2-h3--------5-3-2h3--------5-3-2h3----3-3----|
A-----0-h3------------111h3----------000h3---------333-3-3---|
D--000-------------------------------------------------------|
B------------------------------------------------------------|


G------------------------------------------------------------|
D------------------------------------------------------------|
A------------------------------------------------------------|
D--00-----88-----77-----1010---------------------------------|
B------------------------------------------------------------|


G----------------------------------------------------------------------------|
D----------------------------------------------------------------------------|
A----------------------------------------------------------------------------|
D--0-0000-00-000000h5--8-8888-88-8p78p7--7-7777-77-7777h8p7--10-101010101010-|
B----------------------------------------------------------------------------|


G-----------------------------------------------------------|
D-----------------------------------------------------------|
A-----------------------------------------------------------|
D-0~---Wait For High Hat Hit 4 Times------------------------|
B-----------------------------------------------------------|


G----------------------------------------------------------------------------|
D----------------------------------------------------------------------------|
A----------------------------------------------------------------------------|
D-0000---------0000---------7777-10101010101010--7777-10101010101010--(12----|0)
B------0000000------0000000--------------------------------------------------|


G----------------------------------------------------------------------|
D----------------------------------------------------------------------|
A----------------------------------------------------------------------|
D-(Stride)-0000000---------0000000--(*2)>-7777777-10101010101010-<(*2--|
B------------------0000000---------0000000-----------------------------|

Outro
G--------------------------------------------|
D-----------------------------3-2-5-3-2h3----|
A--------------------------------------------|(*4)
D-0~---Wait About 13 Seconds--------------0--|
B--------------------------------------------|
Suggest correction
comments
print report bad tab
1 comment total.
0 reply
Lycaelon 51 wrote on December 24 2006, 01:57 pm

Yes I Know That Some Of The Stuff Got Seperated But The (12 0) Is A 12/0 It Got Split And All the (*3's Or (*2's Those Are Repeats. Sorry For The Mix-Up...

guest
You may want to rate the tab now too:
select rating
Please do not post tabs as comments. Select "correction" instead!