Oops, an error
Loading. Please wait.

Between Angels And Insects Bass Tab

version 4
version 4
5,524 views 3 this week
no commentswrite comment
1 2 3 4 5
2 more votes to show rating
add to favorites
launch autoscroll
font size
0
reset
guitar tuner
Autoscroll
slow
fast
+/-
esc
set tempo
stop
Help us to improve Ultimate-Guitar.com Take our survey!
×
Tuning: Drop D

Intro: (play at 00:10)
----------------|
----------------|
--5--1--0--3--5-|
----------------|

After intro:
-----------------------------------------------------------------------------|
-----------------------------------------------------------------------------|
-----------------------------------------------------------------------------|
--0-0-0-0-0-0--10-10-10-10-10-10-10-10--0-0-0-0-0-0--10-10-10-10-10-10-10-10-|

-----------------------------------------------------------------------------|
-----------------------------------------------------------------------------|
-----------------------------------------------------------------------------|
--7-7-7-7-7-7--10-10-10-10-10-10-10-10--7-7-7-7-7-7--10-10-10-10-10-10-10-10-|

------------------------------------------------------------------------------|
------------------------------------------------------------------------------|
------------------------------------------------------------------------------|
--0-0-0-0-0-0--10-10-10-10-10-10-10-10--0-0-0-0-0-0--10-10-10-10-10-10-10-10--|

----------------------------------------------------------|
----------------------------------------------------------|
----------------------------------------------------------|
--7-7-7-7-7-7--8-8-8-8-8-8-8--3-3-3-3-3-3--1-1-1-1-1-1-1--|

Verse:x2
-------------------------------------------------------------------------------------|
-------------------------------------------------------------------------------------|
-------------------------------------------------------------------------------------|
--0-0-0-0-0-0--2102--3-3-3-3-3--6545---7-7-7-7-7-7--767--8-8-8-8-8-8--8-10-8-10-8-10-|

Chorus: x2
------------------------------------------------------------------------------|
------------------------------------------------------------------------------|
------------------------------------------------------------------------------|
--0-0-0-0-0-0--10-10-10-10-10-10-10-10--0-0-0-0-0-0--10-10-10-10-10-10-10-10--|

---------------------------------------------------------------------|
---------------------------------------------------------------------|
---------------------------------------------------------------------|
--7-7-7-7-7-7-10-10-10-10-10-10-10--7-7-7-7-7-7-10-10-10-10-10-10-10-|

Repeat verse and chorus

Before solo:(02:18)
------------------|
------------------|
--5---1---0---3---|
------------------|

During solo:

--------------------------------------------------------------------------|
----------5-3-2h3-----------5-3-2h3------------5-3-2h3-----------3---3--3-|
--0-0-0-3-----------1-1-1-3-------------0-0-0-3-------------3-3-3--3--3---|
--------------------------------------------------------------------------|

just before the last chorus

----------------------------------------------------------------------|
----------------------------------------------------------------------|
--------5-(lets it ring)----------------------------------------------|
----------------------------------------------------------------------|

Repeat chorus

Outro:(4 times or 2 times - as you like it)

----10---9---12---10---9h10-|
--0----0---0----0----0------|
----------------------------|
----------------------------|
Suggest correction
Give kudos to tab author, rate the tab!
1 2 3 4 5
comments
print report bad tab
guest
You may want to rate the tab now too:
select rating
Wanna post a correction for this tab? Suggest correction