Oops, an error
Loading. Please wait.

Between Angels And Insects Bass Tab

version 5
version 5
11,159 views 6 this week
no commentswrite comment
1 2 3 4 5
x 7
add to favorites
launch autoscroll
font size
0
reset
guitar tuner
Autoscroll
slow
fast
+/-
esc
set tempo
stop
Help us to improve Ultimate-Guitar.com Take our survey!
×
Tuning
D A D G B E
Papa Roach
Infest
Between Angels And Isects
Tabbed by
The bass starts whenever the drums start

AFTER INTRO!

G -----------------------------------------------|
D -----------------------------------------------|
A -----------------------------------------------|
D --0-0-0-0--10-10-10-10---0-0-0-0--10-10-10-10--|

G ----------------------------------------------|
D ----------------------------------------------|
A ----------------------------------------------|
D --7-7-7-7--10-10-10-10---7-7-7-7--10-10-10-10-|

G ---------------------------------------------|
D ---------------------------------------------|
A ---------------------------------------------|
D -0-0-0-0--10-10-10-10--0-0-0-0--10-10-10-10--|

G --------------------------------------|
D --------------------------------------|
A --------------------------------------|
D -7-7-7-7--8-8-8-8--3-3-3-3--1-1-1-1-3-|

VERSE x 3

G -------------------------------|
D -------------------------------|
A -------------------------------|
D --0-0-0-0-0----0--3-3-3-3-3----|

G ------------------------------------------------------------|
D ------------------------------------------------------------|
A ------------------------------------------------------------|
D --3--7-7-7-7-7----7--8-8-8-8-8----8--10-10--8--10-10--8-10--|

CHORUS

G ----------------------------------------------|
D ----------------------------------------------|
A ----------------------------------------------|
D -0-0-0-0--10-10-10-10--0-0-0-0--10-10-10-10---|

G -------------------------------------------------|
D -------------------------------------------------|
A -------------------------------------------------|
D -7-7-7-7--10-10-10-10--7-7-7-7--10-10-10-10-12/0-|

G --------------------------------------|
D --------------------------------------|
A --------------------------------------|
D -10-10-10-10--0-0-0-0--10-10-10-10----|

G -----------------------------------------------|
D -----------------------------------------------|
A -----------------------------------------------|
D -7-7-7-7--10-10-10-10----7-7-7-7--10-10-10-10--|

Back to the VERSE, but only do it twice!
After that go to chorus!
Once played that play...

G ----------------------------------|
D ----------------------------------|
A ----------------------------------|
D ----0-----8-----7-----10----------|

BASS SOLO

G ---------------7---10--9---5h-7---------------5--3--0h-3------------------------|
D ---0-0---7h-9--------------------8-8-----------------------------------7-7---7--|
A ----------------------------------------5h-7--------------0-0----7h-10-----7----|
D --------------------------------------------------------------------------------|

G ---------------------------------------------------------------------------|
D ---------------------------------------------------------------------------|
A --10--10---0-0---1-1---3--5-5-----3h-5---1-1-----1h-3---0-0----0h-1h---3-3-|
D ---------------------------------------------------------------------------|

G ----------------------------------------------------------|
D ------------------------------------------------------0---|
A --5-5-----3h-5---1-1-----1h-3---0-0----0h-1h---3-3--------|
D ------------------------------------------------------0---|

Hold that last note for 4 beats of the song!
Back to CHORUS now!
Then...         (strumming if u wish! sounds better! but not 2 fast!)

G --------------------------------------------------------------|
D --------------------------------------------------------------|
A --------------------------------------------------------------|
D -0-0-0-0---10-10-10-10---0-0-0-0---10-10-10-10----------------|

G ---------------------------------------------------------|
D ----------------------------------------------------0----|
A ---------------------------------------------------------|
D -7-7-7-7---10-10-10-10---7-7-7-7---10-10-10-10------0----|

After that wait bout 13 or 14 seconds and then play OUTRO!

OUTRO x 4

G -------10---9---12-----9h-10------|
D ----0-----0---0----0--------------|
A ----------------------------------|
D ----------------------------------|
Suggest correction
comments
print report bad tab
guest
You may want to rate the tab now too:
select rating
Wanna post a correction for this tab? Suggest correction