Oops, an error
Loading. Please wait.

Between Angels And Insects Bass Tab

version 6
version 6
702 views 1 this week
no commentswrite comment
1 2 3 4 5
please rate
add to favorites
launch autoscroll
font size
0
reset
guitar tuner
Tab Pro tools
  • play this tab
  • loop segment
  • change instrument
  • show fretboard
  • metronome
×
Best way to learn
"Between Angels And Insects"
Autoscroll
slow
fast
+/-
esc
set tempo
stop
Contributor
Tuning
D A D G B E
#----------------------------------PLEASE NOTE---------------------------------#
#This file is the author's own work and represents their interpretation of the #
#song. You may only use this file for private study, scholarship, or research. #
#------------------------------------------------------------------------------#

BETWEEN ANGELS AND INSECTS (Bassline)
As recorded by Papa Roach



Transcribed by Gary Ramsey Drop D Tuning

 

 

Gtr I (D A D G) - 'Staff'


  Q=93
 4/4
  Gtr I
  W          W          W          W
|----------|----------|----------|------|
|----------|----------|----------|------|
|----------|----------|----------|------|
|----------|----------|----------|------|


  W          W          W          W
|----------|----------|----------|------|
|----------|----------|----------|------|
|----------|----------|----------|------|
|----------|----------|----------|------|


  W          W          E E E E S S S S S S S S
|----------|----------|-------------------------|
|----------|----------|-------------------------|
|----------|----------|-----------3-3-3-3-3-3-3-|
|----------|----------|-0-0-0-0-0---------------|


  E E E E S S S S S S S S   E E E E S S S S S S S S
|-------------------------|-------------------------|
|-------------------------|-------------------------|
|-----------3-3-3-3-3-3---|-0-0-0-0-0-3-3-3-3-3-3---|
|-0-0-0-0-0-------------0-|-----------------------0-|


  E E E S S S S S S S S S S
|---------------------------|
|---------------------------|
|-0-0-0-0-0-0-3-3-3-3-3-3-3-|
|---------------------------|


  E E E E S S S S S S S S   E E E E S S S S S S S S
|-------------------------|-------------------------|
|-------------------------|-------------------------|
|-----------3-3-3-3-3-3-3-|-----------3-3-3-3-3-3---|
|-0-0-0-0-0---------------|-0-0-0-0-0-------------0-|


  E E E S S S S S S S S S S
|---------------------------|
|---------------------------|
|-0-0-0-0-0-0-1-1-1-1-1-1---|
|-------------------------0-|


  E E E S S S S S S S S S S   S S S S S E S Q  S S S S
|---------------------------|---------------------------|
|-------------1-1-1-1-1-1-1-|---------------------------|
|---------------------------|---------------------------|
|-3-3-3-3-3-3---------------|-0-0-0-0-0-0--------0-3-0--|


  S S S S S E S Q  S S S S   S S S S S E S Q  S S S S
|--------------------------|---------------------------|
|--------------------------|---------------------------|
|--------------------------|---------------------------|
|-3-3-3-3-3-3--------5-3-5-|-7-7-7-7-7-7--------7-5-7--|


  S S S S S E S S  S  S S  S  S S  S   S S S S S E S Q  S S S S
|------------------------------------|--------------------------|
|------------------------------------|--------------------------|
|------------------------------------|--------------------------|
|-8-8-8-8-8-8---8-10-10-8-10-10-8-10-|-0-0-0-0-0-0--------0-3-0-|


  S S S S S E S Q  S S S S   S S S S S E S Q  S S S S
|--------------------------|---------------------------|
|--------------------------|---------------------------|
|--------------------------|---------------------------|
|-3-3-3-3-3-3--------5-3-5-|-7-7-7-7-7-7--------7-5-7--|


  S S S S S E S S  S  S S  S  S S  S   S S S S S E S Q  S S S S
|------------------------------------|--------------------------|
|------------------------------------|--------------------------|
|------------------------------------|--------------------------|
|-8-8-8-8-8-8---8-10-10-8-10-10-8-10-|-0-0-0-0-0-0--------0-3-0-|


  S S S S S E S Q  S S S S   S S S S S E S Q  S S S S
|--------------------------|---------------------------|
|--------------------------|---------------------------|
|--------------------------|---------------------------|
|-3-3-3-3-3-3--------5-3-5-|-7-7-7-7-7-7--------7-5-7--|


  S S S S S E S S S S S S E.
|----------------------------|
|----------------------------|
|---------------1-3-3-3---3--|
|-8-8-8-8-8-8-3--------------|


  E E E E S S S S S S S S   E E E E S S S S S S S S
|-------------------------|-------------------------|
|-------------------------|-------------------------|
|-----------3-3-3-3-3-3-3-|-----------3-3-3-3-3-3---|
|-0-0-0-0-0---------------|-0-0-0-0-0-------------0-|


  E E E E S S S S S S S S   E E E E S S S S S S S S   Q  Q  +S  E S E S S
|-------------------------|-------------------------|----------------------|
|-------------------------|-------------------------|----------------------|
|-0-0-0-0-0-3-3-3-3-3-3---|-0-0-0-0-0-3-3-3-3-3-3-3-|-5---------3-3-3-3-3--|
|-----------------------0-|-------------------------|----0--(0)------------|


  E E E E S S S S S S S S   E E E E S S S S S S S S   E E E E S S S S S S S S
|-------------------------|-------------------------|--------------------------|
|-------------------------|-------------------------|--------------------------|
|-----------3-3-3-3-3-3---|-0-0-0-0-0-3-3-3-3-3-3---|-0-0-0-0-0-3-3-3-3-3-3----|
|-0-0-0-0-0-------------0-|-----------------------0-|-----------------------0--|


  S S S S S E S Q  S S S S   S S S S S E S Q  S S S S
|--------------------------|---------------------------|
|--------------------------|---------------------------|
|--------------------------|---------------------------|
|-0-0-0-0-0-0--------0-3-0-|-3-3-3-3-3-3--------5-3-5--|


  S S S S S E S Q  S S S S   S S S S S E S S  S  S S  S  S S  S
|--------------------------|------------------------------------|
|--------------------------|------------------------------------|
|--------------------------|------------------------------------|
|-7-7-7-7-7-7--------7-5-7-|-8-8-8-8-8-8---8-10-10-8-10-10-8-10-|


  S S S S S E S Q  S S S S   S S S S S E S Q  S S S S
|--------------------------|---------------------------|
|--------------------------|---------------------------|
|--------------------------|---------------------------|
|-0-0-0-0-0-0--------0-3-0-|-3-3-3-3-3-3--------5-3-5--|


  S S S S S E S Q  S S S S   S S S S S E S S  S  S S  S  S S  S
|--------------------------|------------------------------------|
|--------------------------|------------------------------------|
|--------------------------|------------------------------------|
|-7-7-7-7-7-7--------7-5-7-|-8-8-8-8-8-8---8-10-10-8-10-10-8-10-|


  S S S S S E S Q  S S S S   S S S S S E S Q  S S S S
|--------------------------|---------------------------|
|--------------------------|---------------------------|
|--------------------------|---------------------------|
|-0-0-0-0-0-0--------0-3-0-|-3-3-3-3-3-3--------5-3-5--|


  S S S S S E S Q  S S S S   S S S S S E S S S S S S E.
|--------------------------|-----------------------------|
|--------------------------|-----------------------------|
|--------------------------|---------------1-3-3-3---3---|
|-7-7-7-7-7-7--------7-5-7-|-8-8-8-8-8-8-3---------------|


  E E E E S S S S S S S S   E E E E S S S S S S S S   E E E E S S S S S S S S
|-------------------------|-------------------------|--------------------------|
|-------------------------|-------------------------|--------------------------|
|-----------3-3-3-3-3-3-3-|-----------3-3-3-3-3-3---|-0-0-0-0-0-3-3-3-3-3-3----|
|-0-0-0-0-0---------------|-0-0-0-0-0-------------0-|-----------------------0--|


  E E E E S S S S S S S S   Q  Q  +S  E S E S S   E E E E S S S S S S S S
|-------------------------|---------------------|--------------------------|
|-------------------------|---------------------|--------------------------|
|-0-0-0-0-0-3-3-3-3-3-3-3-|-5---------3-3-3-3-3-|-----------3-3-3-3-3-3----|
|-------------------------|----0--(0)-----------|-0-0-0-0-0-------------0--|


  E E E E S S S S S S S S   E E E E S S S S S S S S   H    +H
|-------------------------|-------------------------|-------------|
|-------------------------|-------------------------|-------------|
|-0-0-0-0-0-3-3-3-3-3-3---|-0-0-0-0-0-3-3-3-3-3-3---|-5----(5)----|
|-----------------------0-|-----------------------0-|-------------|


  H    +H       H    +H        H     +H
|-------------|-------------|---------------|
|-------------|-------------|---------------|
|-------------|-------------|---------------|
|-8----(8)----|-7----(7)----|-10----(10)----|


  E E S  S  S  S  +E  E +S   S  S S
|-------------10-(10)-9-(9)---------|
|-------10-12---------------11-12---|
|----------16-----------------------|
|-0-0-----------------------------8-|


  +S  Q  S S  S  +E  E +S  S S S   +S  Q  S S S +S  S E +S  S S  S
|--------------------------------|---------------------------------|
|----------8-10-(10)-8-(8)---8---|----------7-------7---------7----|
|--------8-----------------8-----|--------7-----------------7------|
|-(8)-8------------------------7-|-(7)-7------7-(7)---7-(7)-----10-|


   +S   E.  +E  S  S  +S   S  E S S S S
|---------------------------------------|
|---------------------------------------|
|-----------------------------------5---|
|-(10)-10--(10)---10-(10)-10-10-5-7---0-|


  +S  E. +Q   +Q.   S S   +S  E. +Q   +Q.   S S
|-----------------------|-----------------------|
|-----------------------|-----------------------|
|-----5--(5)--(5)-------|-----------------------|
|-(0)-----------------8-|-(8)-8--(8)--(8)-----7-|


  +S  E. +Q   +Q.   S  S    +S   E.  +Q    +Q.   S  S
|------------------------|----------------------------|
|------------------------|----------------------------|
|------------------------|----------------------------|
|-(7)-7--(7)--(7)-----10-|-(10)-10--(10)--(10)-----12-|


   +S   E.  E.  S  +E   E  S  S  S S
|------------------------------------|
|------------------------------------|
|------------------------------------|
|-(12)-12--12--12-(12)-12-12-10-12-8-|


  +S  E. E. S +E  E S S S S   +S  E. E. S +E  E S S S  S
|---------------------------|----------------------------|
|---------------------------|----------------------------|
|-----------------8-8---8---|----------------------------|
|-(8)-8--8--8-(8)-----8---7-|-(7)-7--7--7-(7)-7-7-7-8-10-|


   +S   E.  E.  S  +E   E  S S  S S   +H     +Q.   S S
|-----------------------------------|------------------|
|-----------------------------------|------------------|
|-----------------------------------|------------------|
|-(10)-10--10--10-(10)-10-10-7-10-0-|-(0)----(0)-----0-|


  +S  E S +S  E S  S  S  S  S  S  S  S S
|----------------------------------------|
|----------------------------------------|
|----------------------------------------|
|-(0)-0-0-(0)-0-0-10-10-10-10-10-10-10-0-|


  +S  E S +S  E S  S  S  S  S  S  S S S
|---------------------------------------|
|---------------------------------------|
|---------------------------------------|
|-(0)-0-0-(0)-0-0-10-10-10-10-10-10-0-7-|


  +S  E S +S  E S  S  S  S  S  S  S S S
|---------------------------------------|
|---------------------------------------|
|---------------------------------------|
|-(7)-7-7-(7)-7-7-10-10-10-10-10-10-0-7-|


  +S  E S +S  E S  S  S  S  S  S  S  S  S    +E. S +Q    E  S  S  +S   S  S S
|-----------------------------------------|-----------------------------------|
|-----------------------------------------|-----------------------------------|
|-----------------------------------------|-----------------------------------|
|-(7)-7-7-(7)-7-7-10-10-10-10-10-10-10-12-|-(12)-0-(0)--10-10-10-(10)-10-10-0-|


  +S  E S +S  E S  S  S  S  S  S  S S S
|---------------------------------------|
|---------------------------------------|
|---------------------------------------|
|-(0)-0-0-(0)-0-0-10-10-10-10-10-10-0-7-|


  +S  E S +S  E S  S  S  S  S  S  S S S
|---------------------------------------|
|---------------------------------------|
|---------------------------------------|
|-(7)-7-7-(7)-7-7-10-10-10-10-10-10-0-7-|


  +S  E S +S  E S  S  S  S  S  S  S S S
|---------------------------------------|
|---------------------------------------|
|---------------------------------------|
|-(7)-7-7-(7)-7-7-10-10-10-10-10-10-0-0-|


  S S S S S S S S  S  S  S  S  S  S  S S
|-----------------------------------------|
|-----------------------------------------|
|-----------------------------------------|
|-0-0-0-0-0-0-0-0-10-10-10-10-10-10-10-0--|


  S S S S S S S S  S  S  S  S  S  S S S
|---------------------------------------|
|---------------------------------------|
|---------------------------------------|
|-0-0-0-0-0-0-0-0-10-10-10-10-10-10-0-7-|


  S S S S S S S S  S  S  S  S  S  S S S
|---------------------------------------|
|---------------------------------------|
|---------------------------------------|
|-7-7-7-7-7-7-7-7-10-10-10-10-10-10-0-7-|


  S S S S S S S S  S  S  S  S  S  S  S S   +W           +W
|----------------------------------------|------------|--------|
|----------------------------------------|------------|--------|
|----------------------------------------|------------|--------|
|-7-7-7-7-7-7-7-7-10-10-10-10-10-10-10-0-|-(0)--------|-(0)----|


  +W           +H     +Q.   S S   +S   E  S  E  S  S  +S   S  E  S  S  S S
|------------|------------------|-----10----------12-(12)----10------------|
|------------|------------------|-----------14---------------------14-15---|
|------------|------------------|------------------------------------------|
|-(0)--------|-(0)----(0)-----0-|-(0)----12----12---------12----12-------0-|


  +S   E  S  E  S  S  +S   S  E  S  S  S S
|-----------------12-(12)----10------------|
|-----15----14---------------------14-15---|
|------------------------------------------|
|-(0)----12----12---------12----12-------0-|


  +S   E  S  E  S  S  +S   S  E  S  S  S S
|-----------------12-(12)----10-------------|
|-----15----14---------------------14-15----|
|-------------------------------------------|
|-(0)----12----12---------12----12-------0--|


  +S   E  S  E  S  S  +S   S  E  S  S  S S
|-----------------12-(12)----10------------*|
|-----15----14---------------------14-15---*|
|------------------------------------------*|
|-(0)----12----12---------12----12---------*|




--------------------------------------------------------------------------------


Duration Legend
---------------
W - whole; H - half; Q - quarter; E - 8th; S - 16th; T - 32nd; X - 64th; a - acciaccatura
+ - note tied to previous; . - note dotted; .. - note double dotted
Uncapitalized letters represent notes that are staccato (1/2 duration)
Irregular groupings are notated above the duration line
Duration letters will always appear directly above the note/fret number it represents the
duration for.  Duration letters with no fret number below them represent rests.  Multi-
bar rests are notated in the form Wxn, where n is the number of bars to rest for.  Low
melody durations appear below the staff

Tablature Legend
----------------
 h   - hammer-on
 p   - pull-off
 b   - bend
 pb  - pre-bend
 r   - bend release (if no number after the r, then release immediately)
 /\  - slide into or out of (from/to "nowhere")
 s   - legato slide
 S   - shift slide
 - natural harmonic
[n]  - artificial harmonic
n(n) - tapped harmonic
 ~   - vibrato
 tr  - trill
 T   - tap
 TP  - trem. picking
 PM  - palm muting
\n/  - tremolo bar dip; n = amount to dip
 \n  - tremolo bar down
 n/  - tremolo bar up
/n\  - tremolo bar inverted dip
 =   - hold bend; also acts as connecting device for hammers/pulls
 <> - volume swell (louder/softer)
 x   - on rhythm slash represents muted slash
 o   - on rhythm slash represents single note slash

Misc Legend
-----------
 |  - bar
||  - double bar
||o - repeat start
o|| - repeat end
*|  - double bar (ending)
 :  - bar (freetime)
 $  - Segno
 &  - Coda
Tempo markers -  = BPM(8/16=s8/s16), where s8 = swing 8ths, s16 = swing 16ths



--------------------------------------------------------------------------------

** Generated using Power Tab Editor by Brad Larsen: The Official Power Tab Web Site
comments
We did not receive enough feedback on this tab! Please rate:
print report bad tab
1 2 3 4 5
I want to post or [tab]
guest
You may want to rate the tab now too:
select rating
Please do not post tabs as comments. Select "correction" instead!