Oops, an error
Loading. Please wait.

Blood Brothers Bass

version 1
version 1

Whole song

Interactive

8,302 views 1 this week
3 commentsread comments
1 2 3 4 5
x 5
add to favorites
launch autoscroll
font size
0
reset
guitar tuner
backing track
0:00
0:00
×
Best way to learn
"Blood Brothers"
Autoscroll
slow
fast
+/-
esc
set tempo
stop
Song:  Blood Brothers
Artist:  Papa Roach
Tabbed by:  Jeremy Nelson (jnelson646@aol.com)

I'm pretty sure this is how it goes, it sounds right when I play it.

Drop D Tuning

G:------------|
D:--0-0-------|
A:------------|
D:--------0-0-|

then
G:--7-7-10-7-9-7----7-7-10-7--------7-------|
D:---------------10-----------10-10-----10--|
A:------------------------------------------|
D:------------------------------------------|

Verse
G:----------------------------------|
D:--0-0-3-0-2-0-----0-0-3-0---------|
A:---------------3-------------3-3--|
D:----------------------------------|

Little bass fill
G:-----------|
D:--00---00--|
A:-----------|
D:-----------|

Chorus
G:-----------|
D:-----------|
A:-----------|
D:--00-0-00--|
Suggest correction
comments
print report bad tab
3 comments total.
0 reply
Lycaelon 51 Jan 20, 2007 07:39 AM

Dude There's So Much That You Fotgot It's Not Even Funny.............I Re-wrote This Tab A Week Ago And I'm Still Waiting For It To Confirm...But When It Does Look At Mine Compaired To Yours And you'll See How Much You Missed. Just Thought I'd Let You Know

0 reply
Martin259 210 Feb 06, 2008 11:44 AM

G:--7-7-10-7-9-7------7-7-10-7--------7-------|
D:---------------10-7-----------10-10-----10--|
A:--------------------------------------------|
D:--------------------------------------------|

Missed A lot of this tab...

3 stars.

0 reply
DiegoSilva666 10 Nov 26, 2013 01:50 AM

G:--7-7-10-7-9-----7-7-10-7-7-------7---
D:-------------10-7-----------10-10---10
A:--------------------------------------
D:--------------------------------------

G:--7-7-10-7-9-----7-7-10-7-------------
D:-------------10-7----------10-7-7-8-7-
A:--------------------------------------
D:--------------------------------------

Esse é o Intro certo !!

guest
You may want to rate the tab now too:
select rating
Wanna post a correction for this tab? Suggest correction