Oops, an error
Loading. Please wait.

Blood Brothers Bass Tab

version 3
version 3

Whole song

Interactive

890 views 1 this week
no commentswrite comment
1 2 3 4 5
please rate
add to favorites
launch autoscroll
font size
0
reset
guitar tuner
Autoscroll
slow
fast
+/-
esc
set tempo
stop
Help us to improve Ultimate-Guitar.com Take our survey!
×
Song:  Blood Brothers
Artist:  Papa Roach
Tabbed by:  Carlos Vigo (carlosvigo_250@hotmail.com)

Intro(X4)
G:------------|
D:--0-0-------|  
A:------------|
D:--------0-0-|

Then(X2)
G:--7-7-10-7-9--------7-10-7-7-5-5-7-7------|
D:--------------10--7-----------------------|
A:------------------------------------------|
D:------------------------------------------|


G:--7-7-10-7-9--------7-7-10-7-5------------|
D:--------------10--7------------7-7-8-7----|
A:------------------------------------------|
D:------------------------------------------|

Then(X2)
G:----------------------------------|
D:-----3-0-2---------3-0------------|  
A:-----------3-0---------0-3-3-3-3--|  
D:-0-0-----------0-0----------------|

G:----------------------------------|
D:-----3-0-2---------3-0------------|  
A:-----------3-0--------------------|  
D:-0-0-----------0-0------0-3-3-3-3-|


Verso(X8)
G:----------------------------------|
D:-----3-0-2---------3-0----2-------|  
A:-----------3-0--------------3-0-0-|  
D:-0-0-----------0-0-----0----------|

Chorus(X4)
G:-----------|
D:-----------|
A:-----------|
D:--00-0-00--|

Then(X2)
G:----------------------------------|
D:-----3-0-2---------3-0------------|  
A:-----------3-0-----------0--3-----|  
D:-0-0-----------0-0-----0----------|

G:----------------------------------|
D:-----3-0-2---------3-0------------|  
A:-----------3-0--------------------|  
D:-0-0-----------0-0-----0-0--3-----|
Then
G:-----------|
D:-----------|
A:-1---------|
D:-----------|


Little bass fill(X4)
G:-----------|
D:-----------|  
A:-----------|
D:--0-0------|

Verso(X8)
Chorus(X4)

Then(X2)
G:----------------------------------|
D:-----3-0-2---------3-0------------|  
A:-----------3-0-----------0--3-----|  
D:-0-0-----------0-0-----0----------|

G:----------------------------------|
D:-----3-0-2---------3-0------------|  
A:-----------3-0--------------------|  
D:-0-0-----------0-0-----0-0--3-----|

G:----------------------------------|
D:-----3-0-2---------3-0------------|  
A:-----------3-0-----------0--3-----|  
D:-0-0-----------0-0-----0----------|

G:----------------------------------|
D:-----3-0-2------------------------|  
A:-----------3-0--------------------|  
D:-0-0-----------0-3-0-3-0-3--------|  




Then
G:-------------------|
D:-------------------|
A:-1---1--0-1-0-1---1|
D:-------------------|

G:------------------------------|
D:------------------------------|
A:-0-1-0-1---1--1-1-1-3-3-3-3---|
D:----------------------------0-|

G:------------------------------|
D----0-0---3-0------------------|  
A:-3-------------3------3--3--3-|  
D:-------0-----0----------------|

G:---------------------------|
D:-------0----------0--0-----|
A:---------------------------|
D:-0-0-0------0-0-0------0---|

G:---------------------------|
D:-------0----------0--0-----|
A:---------------------------|
D:-0-0-0------0-0-0------0-0-|


Chorus(X2)

Then(X5)
G:--------------|
D:--------------|
A:-3-0----------|
D:-----0--------|


Then(X2)
G:----------------------------------|
D:-----3-0-2---------3-0------------|  
A:-----------3-0-----------0--3-----|  
D:-0-0-----------0-0-----0----------|

G:----------------------------------|
D:-----3-0-2---------3-0------------|  
A:-----------3-0--------------------|  
D:-0-0-----------0-0-----0-0--3-----|

G:----------------------------------|
D:-----3-0-2---------3-0------------|  
A:-----------3-0-----------0--3-----|  
D:-0-0-----------0-0-----0----------|

G:----------------------------------|
D:-----3-0-2------------------------|  
A:-----------3-0--------------------|  
D:-0-0-----------0-3-0-3-0-3--------|  

Then(X2)
G:----------------------------------|
D:-----3-0-2---------3-0------------|  
A:-----------3-0----------0-3-3-3-3-|  
D:-0-0-----------0-0----------------|

G:----------------------------------|
D:-----3-0-2---------3-0------------|  
A:-----------3-0--------------------|  
D:-0-0-----------0-0-----0-3-3-3-3--|

Chorus(X4)
comments
We did not receive enough feedback on this tab! Please rate:
print report bad tab
1 2 3 4 5
I want to post or [tab]
guest
You may want to rate the tab now too:
select rating
Please do not post tabs as comments. Select "correction" instead!