Oops, an error
Loading. Please wait.

Blood Brothers bass

version 4
version 4

Whole song

Interactive

4,179 views 9 this week
no commentswrite comment
1 2 3 4 5
1 last vote to show rating
add to favorites
×
Save as Personal and add changes to this tab that will be seen only by you. Learn more ›
×
You can save this tab as Personal to edit and correct it or add notes. All changes will be seen only by you. Learn more »
launch autoscroll
font size
0
reset
guitar tuner
backing track
0:00
0:00
edit
Autoscroll
slow
fast
+/-
esc
set tempo
stop
Artist: Papa Roach
Song Title: Blood Brothers (c) 2000 DreamWorks
Tabbed by: konodaichi
Website: http://www.youtube.com/konodaichi - konodaichi's Bass Videos
Tuning: Drop-D (DADG)

Note: There may be mistakes as I learned the song by ear. 
Video of me playing this song will be on my YouTube Channel: http://www.youtube.com/konodaichi

Thank you!

0:06
G-----------|
D-----------|
A-5-5-------|
D-------0-0-| x4

0:17
G-7-7-10-7-9------7-7-10-7-7-------7----|-7-7-10-7-9------7-7-9-7------------|
D------------10-7------------10-10---10-|------------10-7---------10-7-7-8-7-|
A---------------------------------------|------------------------------------|
D---------------------------------------|------------------------------------| x2


0:28
G----------------------------------|----------------------------------|
D----------------------------------|----------------------------------|
A-----8---7----------8-----3-3-3-3-|-----8---7----------8-------------|
D-0-0---0---10-7-0-0---0-0---------|-0-0---0---10-7-0-0---0-0-3-3-3-3-| x2

0:39
G-----------------------------------|
D-----------------------------------|
A-----8---7----------8-----7--------|
D-0-0---0---10-7-0-0---0-0---10-7-7-| x8

1:02
G----------------|
D----------------|
A----------------|
D-0-0----0---0-0-| x4

1:14				
G------------------------------|------------------------------|
D------------------------------|------------------------------|
A-----8---7----------8-----0-3-|-----8---7----------8---------|
D-0-0---0---10-7-0-0---0-0-----|-0-0---0---10-7-0-0---0-0-0-3-| x2

1:25
G----|
D----|
A-1~-|
D----|

1:28
G--------------------------|
D--------------------------|
A--------------------------|
D-0-0----0-0----0-0----0-0-|

1:34
G-----------------------------------|
D-----------------------------------|
A-----8---7----------8-----7--------|
D-0-0---0---10-7-0-0---0-0---10-7-7-| x8

1:56
G----------------|
D----------------|
A----------------|
D-0-0----0---0-0-| x4

2:08
G------------------------------|------------------------------|
D------------------------------|------------------------------|
A-----8---7----------8-----0-3-|-----8---7----------8---------|
D-0-0---0---10-7-0-0---0-0-----|-0-0---0---10-7-0-0---0-0-0-3-|

2:13
G------------------------------|----------------------------|
D------------------------------|----------------------------|
A-----8---7----------8-----0-3-|-----8---7------------------|
D-0-0---0---10-7-0-0---0-0-----|-0-0---0---10-7-0-3-0-3-0-3-|

2:19
G------------------------------|------------------------------|
D------------------------------|------------------------------|
A-----8---7----------8-----0-3-|-----8---7----------8---------|
D-0-0---0---10-7-0-0---0-0-----|-0-0---0---10-7-0-0---0-0-0-3-|

2:25
G------------------------------|----------------------------|
D------------------------------|----------------------------|
A-----8---7----------8-----0-3-|-----8---7------------------|
D-0-0---0---10-7-0-0---0-0-----|-0-0---0---10-7-0-3-0-3-0-3-|

2:30
G-------------------------|-----------------------------------------|
D-------------------------|-----------------------------------------|
A-1-1-0-1-0-1-1-0-1-0-1-1-|-1-1-1-3-3-3-3-3---3-5---8-------3-3-3-3-|
D-------------------------|-----------------0-----0---0-0-0---------|

2:39
G---------------------|-----------------------|
D---------------------|-----------------------|
A-------5--------5----|-------5--------5------|
D-0-0-0----0-0-0----0-|-0-0-0----0-0-0----0-0-|

2:44
G----------------|
D----------------|
A----------------|
D-0-0----0---0-0-| x2

2:50
G--------------------------|-----------------|
D--------------------------|-----------------|
A--------------------------|-----------------|
D-10-7-0---10-7-0---10-7-0-|-10-7-0---10-7-0-|

2:56
G------------------------------|------------------------------|
D------------------------------|------------------------------|
A-----8---7----------8-----0-3-|-----8---7----------8---------|
D-0-0---0---10-7-0-0---0-0-----|-0-0---0---10-7-0-0---0-0-0-3-|

3:02
G------------------------------|----------------------------|
D------------------------------|----------------------------|
A-----8---7----------8-----0-3-|-----8---7------------------|
D-0-0---0---10-7-0-0---0-0-----|-0-0---0---10-7-0-3-0-3-0-3-|

3:07
G----------------------------------|----------------------------------|
D----------------------------------|----------------------------------|
A-----8---7----------8-----3-3-3-3-|-----8---7----------8-------------|
D-0-0---0---10-7-0-0---0-0---------|-0-0---0---10-7-0-0---0-0-3-3-3-3-| x2

3:19
G----------------|
D----------------|
A----------------|
D-0-0----0---0-0-|

            
            
Suggest correction
Creating personal tab
Creating personal tab
You can edit any tab online and save it as your Personal.

You can edit, replace or remove any tab part or add personal notes – all changes will be seen only by you.

Personal tabs can be accessed anytime from any device, even offline.
Learn more »
Give kudos to tab author, rate the tab!
1 2 3 4 5
comments
print report bad tab
guest
You may want to rate the tab now too:
select rating
Wanna post a correction for this tab? Suggest correction