Oops, an error
Loading. Please wait.

Blood Tab

version 1
version 1

Whole song

Interactive

8,385 views 6 this week
no commentswrite comment
1 2 3 4 5
x 13
add to favorites
launch autoscroll
font size
0
reset
how to read this tab
guitar tuner
Autoscroll
slow
fast
+/-
esc
set tempo
stop
Help us to improve Ultimate-Guitar.com Take our survey!
×
Band: Papa Roach
Song: Blood
Album: "Getting away with murder"
Tuning: drop D DADGBE


Intro: " I will forgive but i wont forget..."

E-----------------6----------------------------|
B------11--------6-6-----------11--------------|
G----10--10------------------10--10-------10---| x2
D--8-----------6-------------------------10----|
A--------------------------9------------8------|
D----------------------------------------------|

guitar 1:                    guitar 2:

E---------------            E--18--------------|
B---------------            B------18--19--18--|
G---------------            G------------------|
D--------------- x4         D------------------|
A--/8-8-8--8/2--            A------------------|
D--/8-8-8--8/2--            D------------------|

VERSE: " you better watch out..."

E--------------------------------------|
B--------------------------------------|
G-----------------------8-8---10-10----|   Play fast
D--8-8-8--11-11-11--8-8----8-8----8-8--| X8
A--------------------------------------|
D--------------------------------------|


CHORUS: "does it run in your blood?!..."

E--------------------------------------|
B--------------------------------------|
G--------------------------------------|
D--8888888--6666666--4444444--3333333--| X2
A--8888888--6666666--4444444--3333333--|
D--8888888--6666666--4444444--3333333--|

guitar 1:

E---------------|
B---------------|
G---------------|
D---------------| x4
A--/8-8-8--8/2--|
D--/8-8-8--8/2--|

VERSE x8

CHORUS X4

 bridge:

E---------------              E----------------------------------------------|
B---------------              B----------------------------------------------|
G---------------   then a lil G---10-10---8-8-8------------------------------|
D--------------- x4   solo... D--8--8----8-8-8---8-11-8-11--8-10-8-10-8-10---|
A--/8-8-8--8/2--              A----------------------------------------------|
D--/8-8-8--8/2--              D----------------------------------------------|

---------------------------------------|
----------------------9-9----11-11-11--|
---10-10---11-11-11--------------------|
--8--8----8--8--8----8-8----8--8--8----|
---------------------------------------|
---------------------------------------|

back to the lil intro thing:

E-----------------6----------------------------|
B------11--------6-6-----------11--------------|
G----10--10------------------10--10-------10---| x2  then...
D--8-----------6-------------------------10----|
A--------------------------9------------8------|
D----------------------------------------------|

E-----------------------------------|
B-----------------------------------|
G-----------------------------------|
D-----------------------------------| X2    CHORUS X6
A--8888888-6666666-4444444-6666666--|
D--8888888-6666666-4444444-6666666--|

E---------------|
B---------------|
G---------------|
D---------------| x4
A--/8-8-8--8/2--|
D--/8-8-8--8/2--|

END

Antwan
Suggest correction
comments
print report bad tab
guest
You may want to rate the tab now too:
select rating
Wanna post a correction for this tab? Suggest correction