Oops, an error
Loading. Please wait.

Born For Greatness tab

version 1
version 1

Whole song

  • Only one accurate. I mixed tabs and chords yeah. b... Show more
571 views 33 this week
no commentswrite comment
1 2 3 4 5
2 more votes to show rating
add to favorites
×
Save as Personal and add changes to this tab that will be seen only by you. Learn more ›
×
You can save this tab as Personal to edit and correct it or add notes. All changes will be seen only by you. Learn more »
launch autoscroll
font size
0
reset
how to read this tab
guitar tuner
edit
Autoscroll
slow
fast
+/-
esc
set tempo
stop
Tuning: Standard

Chords Used:
Am - 577555
C  - x3553x
Gm - 355333
Dm - x57765
F  - 133211

[Intro]
Am C Gm Dm
Am C Gm F

[Verse 1]
e|-------------------------------------|
B|-------------------------------------|
G|-------------------------------------|
D|---------7-7-7-7---------------------|
A|-x-x-x-x-----------------------------|
E|-5-5-5-5-----------------------------|

repeat x6

I am a man at war
And I am fighting for
All of the broken people
All of the people thrown overboard
They always tried to shame us
But they don’t speak the language

e|-------------------------------------|
B|-------------------------------------|
G|-------------------------------------|
D|-------------------------------------|
A|-x-x-x-x-----------------------------|
E|-5-5-5-5-----------------------------|

repeat x2

No we’re not nameless, we’re not faceless
We were born for greatness

e|-------------------------------------|
B|-------------------------------------|
G|-------------------------------------|
D|---------7-7-7-7---------------------|
A|-x-x-x-x-----------------------------|
E|-5-5-5-5-----------------------------|

repeat x6

Oh, somebody sound the alarm
Oh, a fire was set in the dark
Oh, it’s time that you know

e|-------------------------------------|
B|-------------------------------------|
G|-------------------------------------|
D|-------------------------------------|
A|-x-x-x-x-----------------------------|
E|-5-5-5-5-----------------------------|

repeat x2

No, we’re not nameless, we’re not faceless
We were born for greatness

[Pre Chorus]
Am                       C 
It doesn’t matter if the world has gone mad
      Dm                       F
If we just hold on, if we just hold on yeah
Am                       C 
The sky is falling and the world has gone mad
      Dm                       F
And we sing our songs, and we just hold on yeah
Am                       C 
So if you’re running, stop running
      Dm                       F
One life, one chance, start living
Am                       C 
Sing it louder just to let the world know
      Dm                       Dm
No, we’re not nameless, we’re not faceless 
We were born for greatness

[Chorus]
e|------------------------------------------------------------------------------|
B|------------------------------------------------------------------------------|
G|------------------------------------------------------------------------------|
D|-----7-7------------------7---------------------------------------------------|
A|---------5--5-5-2-5-2---------------------------------------------------------|
E|-5-5------------------5-5---5-5-5-5-------------------------------------------|

repeat x2

We’re not nameless, we’re not faceless
We were born for greatness
We’re not nameless, we’re not faceless
We were born for greatness

[Verse 2]
e|-------------------------------------|
B|-------------------------------------|
G|-------------------------------------|
D|---------7-7-7-7---------------------|
A|-x-x-x-x-----------------------------|
E|-5-5-5-5-----------------------------|

repeat x8

They say that I’m reckless
Because I’m relentless
They spit on my face, and curse on my name
They’re taking my life in vengeance
Yeah, you can try and blame us
And try to take what’s sacred

e|-------------------------------------|
B|-------------------------------------|
G|-------------------------------------|
D|-------------------------------------|
A|-x-x-x-x-----------------------------|
E|-5-5-5-5-----------------------------|

repeat x2

But we’re not nameless, we’re not faceless
We were born for greatness

e|-------------------------------------|
B|-------------------------------------|
G|-------------------------------------|
D|---------7-7-7-7---------------------|
A|-x-x-x-x-----------------------------|
E|-5-5-5-5-----------------------------|

repeat x6

Oh, somebody sound the alarm
Oh, a fire was set in the dark
Oh, it’s time that you know

e|-------------------------------------|
B|-------------------------------------|
G|-------------------------------------|
D|-------------------------------------|
A|-x-x-x-x-----------------------------|
E|-5-5-5-5-----------------------------|

repeat x2

No we’re not nameless, we’re not faceless
We were born for greatness

[Pre Chorus]
Am                       C 
It doesn’t matter if the world has gone mad
      Dm                       F
If we just hold on, if we just hold on yeah
Am                       C 
The sky is falling and the world has gone mad
      Dm                       F
And we sing our songs, and we just hold on yeah
Am                       C 
So if you’re running, stop running
        Dm                       F
One life, one chance, start living
Am                       C 
Sing it louder just to let the world know
      Dm                  Dm     
No, we’re not nameless, we’re not faceless 
We were born for greatness

[Chorus]
e|------------------------------------------------------------------------------|
B|------------------------------------------------------------------------------|
G|------------------------------------------------------------------------------|
D|-----7-7------------------7---------------------------------------------------|
A|---------5--5-5-2-5-2---------------------------------------------------------|
E|-5-5------------------5-5---5-5-5-5-------------------------------------------|

repeat x2

We’re not nameless, we’re not faceless
We were born for greatness
We’re not nameless, we’re not faceless
We were born for greatness


[Bridge]
Am
    C               Dm         F
Somebody sound the alarm
Am
    C               Dm         F
It’s time that you know

Am                       C 
It doesn’t matter if the world has gone mad

      Dm                       F
If we just hold on, if we just hold on yeah

Am                       C                 Dm
Sing it louder just to let the world know

We’re not nameless, we’re not faceless
We were born for greatness

[Chorus]
e|------------------------------------------------------------------------------|
B|------------------------------------------------------------------------------|
G|------------------------------------------------------------------------------|
D|-----7-7------------------7---------------------------------------------------|
A|---------5--5-5-2-5-2---------------------------------------------------------|
E|-5-5------------------5-5---5-5-5-5-------------------------------------------|
repeat x4

No we’re not nameless, we’re not faceless
We were born for greatness
No we’re not nameless, we’re not faceless
We were born for greatness

We were born for greatness

No we’re not nameless, we’re not faceless
We were born for greatness

            
            
Suggest correction
Creating personal tab
Creating personal tab
You can edit any tab online and save it as your Personal.

You can edit, replace or remove any tab part or add personal notes – all changes will be seen only by you.

Personal tabs can be accessed anytime from any device, even offline.
Learn more »
Give kudos to tab author, rate the tab!
1 2 3 4 5
comments
print report bad tab
guest
You may want to rate the tab now too:
select rating
Wanna post a correction for this tab? Suggest correction