Oops, an error
Loading. Please wait.

Crooked Teeth tab

version 1
version 1

Whole song

Interactive

2,341 views 48 this week
4 commentsread comments
1 2 3 4 5
x 10
add to favorites
×
Save as Personal and add changes to this tab that will be seen only by you. Learn more ›
×
You can save this tab as Personal to edit and correct it or add notes. All changes will be seen only by you. Learn more »
launch autoscroll
font size
0
reset
how to read this tab
guitar tuner
edit
Autoscroll
slow
fast
+/-
esc
set tempo
stop
Papa Roach - Crooked Teeth
Drop D

[Intro]
e|-------------------------------------------------------------------------------------|
B|-------------------------------------------------------------------------------------|
G|-------------------------------------------------------------------------------------|
D|--0--------8--------5--------0--------8----------------------------------------------|
A|--0--------8--------5--------0--------8--------8-8-8-8-8-8-8-8(slowly full bend)-----|
D|--0--------8--------5--------0--------8--------0-0-0-0-0-0-0-0-----------------------|

[Verse 1]
e|-------------------------------------------------------------------------------------|
B|-------------------------------------------------------------------------------------|
G|-------------------------------------------------------------------------------------|
D|-------------------------------------------------------------------------------------|
A|-------------------------------------------------------------------------------------|
D|----12\--0--0-0-0----------12\--0--0-0-0------3-3-3-3-3-6-6-6-3-6-3------------------|

e|-------------------------------------------------------------------------------------|
B|-------------------------------------------------------------------------------------|
G|-------------------------------------------------------------------------------------|
D|----------------------------------------------5-5-5-5-5-5-5-5-3-3-3-3x---------------|
A|----------------------------------------------5-5-5-5-5-5-5-5-3-3-3-3x---------------|
D|----12\--0--0-0-3-6------12\--0--0-0-0--------5-5-5-5-5-5-5-5-3-3-3-3x---------------|

e|-------------------------------------------------------------------------------------|
B|-------------------------------------------------------------------------------------|
G|-------------------------------------------------------------------------------------|
D|-------------------------------------------------------------------------------------|
A|-------------------------------------------------------------------------------------|
D|----12\--0--0-0-0----------12\--0--0-0-0------3-3-3-3-3-6-6-6-3-6-3------------------|

e|-------------------------------------------------------------------------------------|
B|-------------------------------------------------------------------------------------|
G|----------------------------------------------------------------------3-3-3-3--------|
D|----------------------------------------------5-5-5-5-5-5-5-5-3-3-3-3-3-3-3-3--------|
A|----------------------------------------------5-5-5-5-5-5-5-5-3-3-3-3-1-1-1-1--------|
D|----12\--0--0-0-3-6------12\--0--0-0-0--------5-5-5-5-5-5-5-5-3-3-3-3----------------|

(play this fill before the chorus [0:33-0:38])
e|-----|
B|-----|
G|--7--|
D|-----|
A|--5--|
D|-----|

[Chorus]
e|-------------------------------------------------------------------------------------|
B|-------------------------------------------------------------------------------------|
G|-------------------------------------------------------------------------------------|
D|--0-0-0-0-0-0-0-0--3-3-3-3-3-3-3-3--8-8-8-8-8-8-8-8-8-8-8-8-8-8-8-8------------------|
A|--0-0-0-0-0-0-0-0--3-3-3-3-3-3-3-3--8-8-8-8-8-8-8-8-8-8-8-8-8-8-8-8------------------|
D|--0-0-0-0-0-0-0-0--3-3-3-3-3-3-3-3--8-8-8-8-8-8-8-8-8-8-8-8-8-8-8-8------------------|

e|-------------------------------------------------------------------------------------|
B|-------------------------------------------------------------------------------------|
G|-------------------------------------------------------------------------------------|
D|--0-0-0-0-0-0-0-0--3-3-3-3-3-3-3-3--5-5-5-5-5-5-5-5--8-8-8-8-8-8-8-8-----------------|
A|--0-0-0-0-0-0-0-0--3-3-3-3-3-3-3-3--5-5-5-5-5-5-5-5--8-8-8-8-8-8-8-8-----------------|
D|--0-0-0-0-0-0-0-0--3-3-3-3-3-3-3-3--5-5-5-5-5-5-5-5--8-8-8-8-8-8-8-8-----------------|

e|-------------------------------------------------------------------------------------|
B|-------------------------------------------------------------------------------------|
G|-------------------------------------------------------------------------------------|
D|--0-0-0-0x----0-3-3-3-3x----8-8-8-8-8-8-8-8-8-8-8-8-8-8-8-8--------------------------|
A|--0-0-0-0x----0-3-3-3-3x----8-8-8-8-8-8-8-8-8-8-8-8-8-8-8-8--------------------------|
D|--0-0-0-0x----0-3-3-3-3x----8-8-8-8-8-8-8-8-8-8-8-8-8-8-8-8--------------------------|

e|-------------------------------------------------------------------------------------|
B|-------------------------------------------------------------------------------------|
G|-------------------5-5-5-5-5-5-5-5---------------------------------------------------|
D|--0-0-0-0-0-0-0-0--5-5-5-5-5-5-5-5--5-5-5-5-5-5-5-5--x-1-1-1-x-1-1-1-----------------|
A|--0-0-0-0-0-0-0-0--3-3-3-3-3-3-3-3--5-5-5-5-5-5-5-5--x-1-1-1-x-1-1-1-----------------|
D|--0-0-0-0-0-0-0-0-------------------5-5-5-5-5-5-5-5--x-1-1-1-x-1-1-1-----------------|

[Verse 2]
e|-------------------------------------------------------------------------------------|
B|-------------------------------------------------------------------------------------|
G|-------------------------------------------------------------------------------------|
D|-------------------------------------------------------------------------------------|
A|-------------------------------------------------------------------------------------|
D|----12\--0--0-0-0----------12\--0--0-0-0------3-3-3-3-3-6-6-6-3-6-3------------------|

e|-------------------------------------------------------------------------------------|
B|-------------------------------------------------------------------------------------|
G|-------------------------------------------------------------------------------------|
D|----------------------------------------------5-5-5-5-5-5-5-5-3-3-3-3-1-1-1-1--------|
A|----------------------------------------------5-5-5-5-5-5-5-5-3-3-3-3-1-1-1-1--------|
D|----12\--0--0-0-3-6--------12\--0--0-0-0------5-5-5-5-5-5-5-5-3-3-3-3-1-1-1-1--------|

*Pause during "Caved in, hyperventilatin'..."*

e|-------------------------------------------------------------------------------------|
B|-------------------------------------------------------------------------------------|
G|-------------------------------------------------------------------------------------|
D|-------------------------------------------------------------------------------------|
A|-------------------------------------------------------------------------------------|
D|----12\--0--0-0-0----------12\--0--0-0-0------3-3-3-3-3-6-6-6-3-6-3------------------|

e|-------------------------------------------------------------------------------------|
B|-------------------------------------------------------------------------------------|
G|----------------------------------------------------------------------3-3-3-3--------|
D|----------------------------------------------5-5-5-5-5-5-5-5-3-3-3-3-3-3-3-3--------|
A|----------------------------------------------5-5-5-5-5-5-5-5-3-3-3-3-1-1-1-1--------|
D|----12\--0--0-0-3-6------12\--0--0-0-0--------5-5-5-5-5-5-5-5-3-3-3-3----------------|

[Chorus 2]
e|-------------------------------------------------------------------------------------|
B|-------------------------------------------------------------------------------------|
G|-------------------------------------------------------------------------------------|
D|--0-0-0-0-0-0-0-0--3-3-3-3-3-3-3-3--8-8-8-8-8-8-8-8-8-8-8-8-8-8-8-8------------------|
A|--0-0-0-0-0-0-0-0--3-3-3-3-3-3-3-3--8-8-8-8-8-8-8-8-8-8-8-8-8-8-8-8------------------|
D|--0-0-0-0-0-0-0-0--3-3-3-3-3-3-3-3--8-8-8-8-8-8-8-8-8-8-8-8-8-8-8-8------------------|

e|-------------------------------------------------------------------------------------|
B|-------------------------------------------------------------------------------------|
G|-------------------------------------------------------------------------------------|
D|--0-0-0-0-0-0-0-0--3-3-3-3-3-3-3-3--5-5-5-5-5-5-5-5--8-8-8-8-8-8-8-8-----------------|
A|--0-0-0-0-0-0-0-0--3-3-3-3-3-3-3-3--5-5-5-5-5-5-5-5--8-8-8-8-8-8-8-8-----------------|
D|--0-0-0-0-0-0-0-0--3-3-3-3-3-3-3-3--5-5-5-5-5-5-5-5--8-8-8-8-8-8-8-8-----------------|

e|-------------------------------------------------------------------------------------|
B|-------------------------------------------------------------------------------------|
G|-------------------------------------------------------------------------------------|
D|--0-0-0-0x----0-3-3-3-3x----8-8-8-8-8-8-8-8-8-8-8-8-8-8-8-8--------------------------|
A|--0-0-0-0x----0-3-3-3-3x----8-8-8-8-8-8-8-8-8-8-8-8-8-8-8-8--------------------------|
D|--0-0-0-0x----0-3-3-3-3x----8-8-8-8-8-8-8-8-8-8-8-8-8-8-8-8--------------------------|

e|-------------------------------------------------------------------------------------|
B|-------------------------------------------------------------------------------------|
G|-------------------5-5-5-5-5-5-5-5---------------------------------------------------|
D|--0-0-0-0-0-0-0-0--5-5-5-5-5-5-5-5--5-5-5-5-5-5-5-5--x-1-1-1-x-1-1-1-1-1-1-1---------|
A|--0-0-0-0-0-0-0-0--3-3-3-3-3-3-3-3--5-5-5-5-5-5-5-5--x-1-1-1-x-1-1-1-1-1-1-1---------|
D|--0-0-0-0-0-0-0-0-------------------5-5-5-5-5-5-5-5--x-1-1-1-x-1-1-1-1-1-1-1---------|
                                                                       . . . .
[Interlude]
e|-------------------------------------------------------------------------------------|
B|-------------------------------------------------------------------------------------|
G|-------------------------------------------------------------------------------------|
D|-------------------------------------------------------------------------------------|
A|-------------------------------------------------------------------------------------|
D|--0--0--0-0--0--0-0-0--0-3-0-6-0--0--0--0-0--0--0-0-0--0-3-0-6-----------------------|

e|-------------------------------------------------------------------------------------|
B|-------------------------------------------------------------------------------------|
G|-------------------------------------------------------------------------------------|
D|-------------------------------------------------------------------------------------|
A|-------------------------------------------------------------------------------------|
D|--0--0--0-0--0--0-0-0--0-3-0-6-0--0--0-0--0------------------------------------------|

e|-------------------------------------------------------------------------------------|
B|-------------------------------------------------------------------------------------|
G|-------------------------------------------------------------------------------------|
D|--0--0--0-0--0--0-0-0--0-3-0-6-0--0--0-0--0--x-x-x-x-x-x-x-x-------------------------|
A|--0--0--0-0--0--0-0-0--0-3-0-6-0--0--0-0--0--x-x-x-x-x-x-x-x-------------------------|
D|--0--0--0-0--0--0-0-0--0-3-0-6-0--0--0-0--0--x-x-x-x-x-x-x-x-------------------------|
                  . .  
e|-------------------------------------------------------------------------------------|
B|-------------------------------------------------------------------------------------|
G|-------------------------------------------------------------------------------------|
D|--0--0--0-0--0--0-0-0--0-3-0-6-0--0--0-0--0------------------------------------------|
A|--0--0--0-0--0--0-0-0--0-3-0-6-0--0--0-0--0------------------------------------------|
D|--0--0--0-0--0--0-0-0--0-3-0-6-0--0--0-0--0------------------------------------------|
                  . .  
[Chorus 3]
e|-------------------------------------------------------------------------------------|
B|-------------------------------------------------------------------------------------|
G|-------------------------------------------------------------------------------------|
D|--0-0-0-0-0-0-0-0--3-3-3-3-3-3-3-3--8-8-8-8-8-8-8-8-8-8-8-8-8-8-8-8------------------|
A|--0-0-0-0-0-0-0-0--3-3-3-3-3-3-3-3--8-8-8-8-8-8-8-8-8-8-8-8-8-8-8-8------------------|
D|--0-0-0-0-0-0-0-0--3-3-3-3-3-3-3-3--8-8-8-8-8-8-8-8-8-8-8-8-8-8-8-8------------------|

e|-------------------------------------------------------------------------------------|
B|-------------------------------------------------------------------------------------|
G|-------------------------------------------------------------------------------------|
D|--0-0-0-0-0-0-0-0--3-3-3-3-3-3-3-3--5-5-5-5-5-5-5-5--8-8-8-8-8-8-8-8-----------------|
A|--0-0-0-0-0-0-0-0--3-3-3-3-3-3-3-3--5-5-5-5-5-5-5-5--8-8-8-8-8-8-8-8-----------------|
D|--0-0-0-0-0-0-0-0--3-3-3-3-3-3-3-3--5-5-5-5-5-5-5-5--8-8-8-8-8-8-8-8-----------------|

e|-------------------------------------------------------------------------------------|
B|-------------------------------------------------------------------------------------|
G|-------------------------------------------------------------------------------------|
D|--0-0-0-0-0-0-0-0--3-3-3-3-3-3-3-3--5-5-5-5-5-5-5-5--8-8-8-8-8-8-8-8-----------------|
A|--0-0-0-0-0-0-0-0--3-3-3-3-3-3-3-3--5-5-5-5-5-5-5-5--8-8-8-8-8-8-8-8-----------------|
D|--0-0-0-0-0-0-0-0--3-3-3-3-3-3-3-3--5-5-5-5-5-5-5-5--8-8-8-8-8-8-8-8-----------------|

e|-------------------------------------------------------------------------------------|
B|-------------------------------------------------------------------------------------|
G|-------------------5-5-5-5-5-5-5-5---------------------------------------------------|
D|--0-0-0-0-0-0-0-0--5-5-5-5-5-5-5-5--5-5-5-5-5-5-5-5--x-1-1-1-x-1-1-1-1-1-1-1---------|
A|--0-0-0-0-0-0-0-0--3-3-3-3-3-3-3-3--5-5-5-5-5-5-5-5--x-1-1-1-x-1-1-1-1-1-1-1---------|
D|--0-0-0-0-0-0-0-0-------------------5-5-5-5-5-5-5-5--x-1-1-1-x-1-1-1-1-1-1-1---------|
                                                                       . . . .
[Outro]
e|-------------------------------------------------------------------------------------|
B|-------------------------------------------------------------------------------------|
G|-------------------------------------------------------------------------------------|
D|-------------------------------------------------------------------------------------|
A|-------------------------------------------------------------------------------------|
D|----12\--0--0-0-0----------12\--0--0-0-0------3-3-3-3-3-6-6-6-3-6-3------------------|

e|-------------------------------------------------------------------------------------|
B|-------------------------------------------------------------------------------------|
G|-------------------------------------------------------------------------------------|
D|----------------------------------------------5-5-5-5-5-5-5-5-3-3-3-3-8-8-8-8--------|
A|----------------------------------------------5-5-5-5-5-5-5-5-3-3-3-3-8-8-8-8--------|
D|----12\--0--0-0-3-6------12\--0--0-0-0--------5-5-5-5-5-5-5-5-3-3-3-3-8-8-8-8--------|

e|-------------------------------------------------------------------------------------|
B|-------------------------------------------------------------------------------------|
G|-------------------------------------------------------------------------------------|
D|-------------------------------------------------------------------------------------|
A|-------------------------------------------------------------------------------------|
D|----12\--0--0-0----------------------------------------------------------------------|

Legend

\ = slide down
. = palm mute
(number)x = stop note
x = dead note

            
            
Suggest correction
Creating personal tab
Creating personal tab
You can edit any tab online and save it as your Personal.

You can edit, replace or remove any tab part or add personal notes – all changes will be seen only by you.

Personal tabs can be accessed anytime from any device, even offline.
Learn more »
comments
print report bad tab
4 comments total. Showing first comments.
+2 reply
Danny_Malloy 23 May 01, 2017 12:23 PM

This is awesome! I don't really see anything wrong with it and it sounds fine!

+1 reply
gromoboy.14 10 May 22, 2017 08:26 AM

This is really good. I wish there was the lead part.

0 reply
zenias 10 Jun 05, 2017 01:42 PM

plzzz do periscope :)))

guest
You may want to rate the tab now too:
select rating
Wanna post a correction for this tab? Suggest correction