Oops, an error
Loading. Please wait.

Forever Accoustic tab

30,679 views 18 this week
6 commentsread comments
1 2 3 4 5
x 6
add to favorites
×
Save as Personal and add changes to this tab that will be seen only by you. Learn more ›
×
You can save this tab as Personal to edit and correct it or add notes. All changes will be seen only by you. Learn more »
launch autoscroll
font size
0
reset
how to read this tab
guitar tuner
edit
Autoscroll
slow
fast
+/-
esc
set tempo
stop
Author
Tabbers playing skills
intermediate +
This is my frist tab here on UG if you have any problems contact me at      
.
______________________________________________________
|KEY:                                                |
|                                                    |
| / = Slide up                 x = palm mute         |
|                                                    |
| \ = slide down              h = light/heavy strum  |
|                             v                      |
|                                                    |
| v = light strum down        b = slight bend        |
|                                                    |
| ^ = light strum up          r = return bend        |
|____________________________________________________|

Guitar 1 mainly uses Power chords and Guitar 2 mainly uses basic chords and if you need 
getting the strum pattern listen to the song.

(Guitar 1 Verse)
  h      h      h       h        h          h
  v  v v v  v v v   v v v  v  v  v    v  v  v  v  v
|------------------------------------------------------|
|------------------------------------------------------|
|------------------------------------------------------|
|-9--9-9-9--9-9-9--9-9-12--12-12-12--12-12-12--12-12---|
|-7--7-7-7--7-7-7--7-7-10--10-10-10--10-10-10--10-10---|
|------------------------------------------------------|
     x x    x x    x x     x  x      x  x      x  x

  h      h      h      h      h      h
  v  v v v  v v v  v v v  v v v  v v v  v v
|-------------------------------------------|
|-------------------------------------------|
|-------------------------------------------|
|-7--7-7-7--7-7-7--7-7-5--5-5-5--5-5-5--5-5-|
|-5--5-5-5--5-5-5--5-5-3--3-3-3--3-3-3--3-3-|
|-------------------------------------------|
      x x   x x    x x    x x    x x    x x

(guitar 2 verse Starts after guitar 1 repeats 3rd time on the 3rd chord)
|-----------------------------------------------------------------------|
|/13-13-13b---13-13-1313r-\11---11--11--\10---10--10--/13---13--1313----|
|-----------------------------------------------------------------------|
|-----------------------------------------------------------------------|
|-----------------------------------------------------------------------|
|-----------------------------------------------------------------------|

|-----------------------------------------------------------------------|
|---------------------------10---10--1010-------------------------------|
|-0---10--1010--12---12--12-----------------12---12--12--10---10--10----|
|-----------------------------------------------------------------------|
|-----------------------------------------------------------------------|
|-----------------------------------------------------------------------|

|---------------|
|---------------|
|-12---12--1212-|
|---------------|
|---------------|
|---------------|

(Guitar 2 Pre-chours)
|-----------------------------------------------------------------------|
|-----------------------------------------------------------------------|
|--15-15-15--14----14---------------------------------------------------|
|---------------15-----17--14\12---12-12/14---14-14-14/15---15-15-15/-17|
|-----------------------------------------------------------------------|
|-----------------------------------------------------------------------|


(Guitar 1 chours)
  h       h  h        h  h             h   h            h
  v ^ v ^ v  ^  v ^ v ^  v    ^  v  ^  v   ^   v  ^  v  ^
|-----------------------------------------------------------------------|
|-----------------------------------------------------------------------|
|-----------------------------------------------------------------------|
|9--9-9-9-9--9--9-9-9-9--12--12-12-12-12--12--12-12-12-12---------------|
|7--7-7-7-7--7--7-7-7-7--10--10-10-10-10--10--10-10-10-10---------------|
|-----------------------------------------------------------------------|

  h       h  h        h  h        h  h        h  h  h  h
  v ^ v ^ v  ^  v ^ v ^  v  ^ v ^ v  ^  v ^ v ^  v  v  v
|----------------------------------------------------------|
|----------------------------------------------------------|
|----------------------------------------------------------|
|7--7-7-7-7--7--7-7-7-7--5--5-5-5-5--5--5-5-5-5--3--2--3---|
|5--5-5-5-5--5--5-5-5-5--3--3-3-3-3--3--3-3-3-3--2--0--2---|
|----------------------------------------------------------|


(guitar 2 Same strumming pattern)
 h       h   h        h  h         h  h        h
 v ^ v ^ v   ^  v ^ v ^  v   ^ v ^ v  ^  v ^ v ^
|0--0-0-0-0--0--0-0-0-0--3---3-3-3-3--3--3-3-3-3--|
|0--0-0-0-0--0--0-0-0-0--0---0-0-0-0--0--0-0-0-0--|
|1--1-1-1-1--1--1-1-1-1--0---0-0-0-0--0--0-0-0-0--|
|2--2-2-2-2--2--2-2-2-2--0---0-0-0-0--0--0-0-0-0--|
|2--2-2-2-2--2--2-2-2-2--2---2-2-2-2--2--2-2-2-2--|
|------------------------3---3-3-3-3--3--3-3-3-3--|

 h       h   h        h  h         h  h        h
 v ^ v ^ v   ^  v ^ v ^  v   ^ v ^ v  ^  v ^ v ^
|2--2-2-2-2--2--2-2-2-2--0---0-0-0-0--0--0-0-0-0--|
|3--3-3-3-3--3--3-3-3-3--3---3-3-3-3--3--3-3-3-3--|
|2--2-2-2-2--2--2-2-2-2--0---0-0-0-0--0--0-0-0-0--|
|0--0-0-0-0--0--0-0-0-0--2---2-2-2-2--2--2-2-2-2--|
|------------------------3---3-3-3-3--3--3-3-3-3--|
|-------------------------------------------------|


(Guitar 1 Verse)
  h      h      h       h        h          h
  v  v v v  v v v   v v v  v  v  v    v  v  v  v  v
|------------------------------------------------------|
|------------------------------------------------------|
|------------------------------------------------------|
|-9--9-9-9--9-9-9--9-9-12--12-12-12--12-12-12--12-12---|
|-7--7-7-7--7-7-7--7-7-10--10-10-10--10-10-10--10-10---|
|------------------------------------------------------|
     x x    x x    x x     x  x      x  x      x  x

  h      h      h      h      h      h
  v  v v v  v v v  v v v  v v v  v v v  v v
|-------------------------------------------|
|-------------------------------------------|
|-------------------------------------------|
|-7--7-7-7--7-7-7--7-7-5--5-5-5--5-5-5--5-5-|
|-5--5-5-5--5-5-5--5-5-3--3-3-3--3-3-3--3-3-|
|-------------------------------------------|
      x x   x x    x x    x x    x x    x x

(guitar 2 verse)
|----------------------------------------------------------------------|
|---------10-----------------------------------------------------------|
|-----10------10-----------10------------10--13--10--------10----------|
|-12--------------------12----12-----10-----------------10------10-----|
|----------------------------------------------------------------------|
|----------------------------------------------------------------------|

|----------------------------------------------------------------------|
|---------13---------------------------------11------------------------|
|-----12------12-----------12------------10------10--------10----------|
|-10--------------------10----10------8------------------8-------------|
|----------------------------------------------------------------------|
|----------------------------------------------------------------------|


(Guitar 2 Pre-chours)
|-----------------------------------------------------------------------|
|-----------------------------------------------------------------------|
|--15-15-15--14----14---------------------------------------------------|
|---------------15-----17--14\12---12-12/14---14-14-14/15---15-15-15/-17|
|-----------------------------------------------------------------------|
|-----------------------------------------------------------------------|


(Guitar 1 chours)
  h       h  h        h  h             h   h            h
  v ^ v ^ v  ^  v ^ v ^  v    ^  v  ^  v   ^   v  ^  v  ^
|-----------------------------------------------------------------------|
|-----------------------------------------------------------------------|
|-----------------------------------------------------------------------|
|9--9-9-9-9--9--9-9-9-9--12--12-12-12-12--12--12-12-12-12---------------|
|7--7-7-7-7--7--7-7-7-7--10--10-10-10-10--10--10-10-10-10---------------|
|-----------------------------------------------------------------------|

  h       h  h        h  h        h  h        h  h  h  h
  v ^ v ^ v  ^  v ^ v ^  v  ^ v ^ v  ^  v ^ v ^  v  v  v
|----------------------------------------------------------|
|----------------------------------------------------------|
|----------------------------------------------------------|
|7--7-7-7-7--7--7-7-7-7--5--5-5-5-5--5--5-5-5-5--3--2--3---|
|5--5-5-5-5--5--5-5-5-5--3--3-3-3-3--3--3-3-3-3--2--0--2---|
|----------------------------------------------------------|


(guitar 2)
 h       h   h        h  h         h  h        h
 v ^ v ^ v   ^  v ^ v ^  v   ^ v ^ v  ^  v ^ v ^
|0--0-0-0-0--0--0-0-0-0--3---3-3-3-3--3--3-3-3-3--|
|0--0-0-0-0--0--0-0-0-0--0---0-0-0-0--0--0-0-0-0--|
|1--1-1-1-1--1--1-1-1-1--0---0-0-0-0--0--0-0-0-0--|
|2--2-2-2-2--2--2-2-2-2--0---0-0-0-0--0--0-0-0-0--|
|2--2-2-2-2--2--2-2-2-2--2---2-2-2-2--2--2-2-2-2--|
|------------------------3---3-3-3-3--3--3-3-3-3--|

 h       h   h        h  h         h  h        h
 v ^ v ^ v   ^  v ^ v ^  v   ^ v ^ v  ^  v ^ v ^
|2--2-2-2-2--2--2-2-2-2--0---0-0-0-0--0--0-0-0-0--|
|3--3-3-3-3--3--3-3-3-3--3---3-3-3-3--3--3-3-3-3--|
|2--2-2-2-2--2--2-2-2-2--0---0-0-0-0--0--0-0-0-0--|
|0--0-0-0-0--0--0-0-0-0--2---2-2-2-2--2--2-2-2-2--|
|------------------------3---3-3-3-3--3--3-3-3-3--|
|-------------------------------------------------|

(guitar 1 brdige)
  h    h   h                h    h   h
  v    v   v v v v v v v v  v    v   v v v v v v v v
|------------------------------------------------------------|
|------------------------------------------------------------|
|------------------------------------------------------------|
|-3----2---7-7-7-7-7-7-7-7--3----2---5-5-5-5-5-5-5-5---------|
|-1----0---5-5-5-5-5-5-5-5--1----0---3-3-3-3-3-3-3-3---------|
|------------------------------------------------------------|

  h    h   h                h    h   h
  v    v   v v v v v v v v  v    v   v v v v v v v v
|------------------------------------------------------------|
|------------------------------------------------------------|
|------------------------------------------------------------|
|-3----2---3-3-3-3-3-3-3-3--3----2---5-5-5-5-5-5-5-5---------|
|-1----0---1-1-1-1-1-1-1-1--1----0---3-3-3-3-3-3-3-3---------|
|------------------------------------------------------------|

(guitar 2 bridge)
   h   h   h                h     h   h
   v   v   v                v     v   v
|------------------------------------------------------------|
|------------------------------------------------------------|
|-15---14--15---------------15---17--14----------------------|
|-13---12--13---------------13---15--12----------------------|
|------------------------------------------------------------|
|------------------------------------------------------------|

  h    h   h                h     h   h
  v    v   v                v     v   v
|------------------------------------------------------------|
|------------------------------------------------------------|
|-15---14--15---------------15---17--14----------------------|
|-13---12--13---------------13---15--12----------------------|
|------------------------------------------------------------|
|------------------------------------------------------------|


(Guitar 1 chours)
  h       h  h        h  h             h   h            h
  v ^ v ^ v  ^  v ^ v ^  v    ^  v  ^  v   ^   v  ^  v  ^
|-----------------------------------------------------------------------|
|-----------------------------------------------------------------------|
|-----------------------------------------------------------------------|
|9--9-9-9-9--9--9-9-9-9--12--12-12-12-12--12--12-12-12-12---------------|
|7--7-7-7-7--7--7-7-7-7--10--10-10-10-10--10--10-10-10-10---------------|
|-----------------------------------------------------------------------|

  h       h  h        h  h        h  h        h
  v ^ v ^ v  ^  v ^ v ^  v  ^ v ^ v  ^  v ^ v ^
|-----------------------------------------------|
|-----------------------------------------------|
|-----------------------------------------------|
|7--7-7-7-7--7--7-7-7-7--5--5-5-5-5--5--5-5-5-5-|
|5--5-5-5-5--5--5-5-5-5--3--3-3-3-3--3--3-3-3-3-|
|-----------------------------------------------|


(guitar 2 Same strumming pattern)
 h       h   h        h  h         h  h        h
 v ^ v ^ v   ^  v ^ v ^  v   ^ v ^ v  ^  v ^ v ^
|0--0-0-0-0--0--0-0-0-0--3---3-3-3-3--3--3-3-3-3--|
|0--0-0-0-0--0--0-0-0-0--0---0-0-0-0--0--0-0-0-0--|
|1--1-1-1-1--1--1-1-1-1--0---0-0-0-0--0--0-0-0-0--|
|2--2-2-2-2--2--2-2-2-2--0---0-0-0-0--0--0-0-0-0--|
|2--2-2-2-2--2--2-2-2-2--2---2-2-2-2--2--2-2-2-2--|
|------------------------3---3-3-3-3--3--3-3-3-3--|

 h       h   h        h  h         h  h        h
 v ^ v ^ v   ^  v ^ v ^  v   ^ v ^ v  ^  v ^ v ^
|2--2-2-2-2--2--2-2-2-2--0---0-0-0-0--0--0-0-0-0--|
|3--3-3-3-3--3--3-3-3-3--3---3-3-3-3--3--3-3-3-3--|
|2--2-2-2-2--2--2-2-2-2--0---0-0-0-0--0--0-0-0-0--|
|0--0-0-0-0--0--0-0-0-0--2---2-2-2-2--2--2-2-2-2--|
|------------------------3---3-3-3-3--3--3-3-3-3--|
|-------------------------------------------------|


(Guitar 1 outro)
  h      h      h       h        h          h
  v  v v v  v v v   v v v  v  v  v    v  v  v  v  v
|------------------------------------------------------|
|------------------------------------------------------|
|------------------------------------------------------|
|-9--9-9-9--9-9-9--9-9-12--12-12-12--12-12-12--12-12---|
|-7--7-7-7--7-7-7--7-7-10--10-10-10--10-10-10--10-10---|
|------------------------------------------------------|
     x x    x x    x x     x  x      x  x      x  x

  h      h      h      h      h      h
  v  v v v  v v v  v v v  v v v  v v v  v v
|-------------------------------------------|
|-------------------------------------------|
|-------------------------------------------|
|-7--7-7-7--7-7-7--7-7-5--5-5-5--5-5-5--5-5-|
|-5--5-5-5--5-5-5--5-5-3--3-3-3--3-3-3--3-3-|
|-------------------------------------------|
      x x   x x    x x    x x    x x    x x


(Guitar 2 outro)
  h      h      h      h      h      h
  v  v v v  v v v  v v v  v v v  v v v  v v
|-0--0-0-0--0-0-0--0-0-3--3-3-3--3-3-0--3-3-------|
|-0--0-0-0--0-0-0--0-0-0--0-0-0--0-0-0--0-0-------|
|-1--1-1-1--1-1-1--1-1-0--0-0-0--0-0-0--0-0-------|
|-2--2-2-2--2-2-2--2-2-0--0-0-0--0-0-0--0-0-------|
|-2--2-2-2--2-2-2--2-2-2--2-2-2--2-2-2--2-2-------|
|----------------------3--3-3-3--3-3-3--3-3-------|
     x x    x x    x x    x x    x x    x x

  h      h      h      h      h      h
  v  v v v  v v v  v v v  v v v  v v v  v v
|-2--2-2-2--2-2-2--2-2-0--0-0-0--0-0-0--0-0-|
|-3--3-3-3--3-3-3--3-3-3--3-3-3--3-3-3--3-3-|
|-2--2-2-2--2-2-2--2-2-0--0-0-0--0-0-0--0-0-|
|-0--0-0-0--0-0-0--0-0-2--2-2-2--2-2-2--2-2-|
|-0--0-0-0--0-0-0--0-0-3--3-3-3--3-3-3--3-3-|
|-------------------------------------------|
      x x   x x    x x    x x    x x    x x

            
            
Suggest correction
Creating personal tab
Creating personal tab
You can edit any tab online and save it as your Personal.

You can edit, replace or remove any tab part or add personal notes – all changes will be seen only by you.

Personal tabs can be accessed anytime from any device, even offline.
Learn more »
comments
print report bad tab
6 comments total. Showing first comments.
+1 reply
sallythecricket 10 Jun 05, 2009 07:07 AM

YAY! finally huh?

0 reply
Gildroy 10 Jun 27, 2009 05:35 PM

Ithin the guitar 2 pre chorus sounds better like this: |-----------------------------------------------------------------------|
|-----------------------------------------------------------------------|
|--15-15-15-14----14----------------------------------------------------|
|--------------15------17-14---14-12-14-15---15-14-15-17----------------|
|-----------------------------------------------------------------------|
|-----------------------------------------------------------------------|

0 reply
itsguitarguy 10 Feb 06, 2011 09:00 AM

whats the tuning mate?

guest
You may want to rate the tab now too:
select rating
Wanna post a correction for this tab? Suggest correction