Oops, an error
Loading. Please wait.

Forever bass

version 1
version 1

Whole song

Interactive

7,582 views 3 this week
3 commentsread comments
1 2 3 4 5
x 4
add to favorites
×
Save as Personal and add changes to this tab that will be seen only by you. Learn more ›
×
You can save this tab as Personal to edit and correct it or add notes. All changes will be seen only by you. Learn more »
launch autoscroll
font size
0
reset
guitar tuner
backing track
0:00
0:00
edit
Autoscroll
slow
fast
+/-
esc
set tempo
stop
Difficulty
TUNING- DROP D

I REALLY LIKE THIS SONG AND HAD TO TAB IT SINCE NO ONE ELSE DID IT YET ITS MY FIRST TAB 
IF ITS WRONG PLEASE CORRECT ME!


INTRO/VERSE
G|-----------------------------------------------------------------------------|
D|-----------------------------------------------------------------------------|
A|--3-3-3-3-3-3-3-3-5-5-5-5-5-5-5-5--------------------------------------------|
D|----------------------------------5-5-5-5-5-5-5-5-3-3-3-3-3-3-3-3------------|

CHORUS
G|-----------------------------------------------------------------------------|
D|-----------------------------------------------------------------------------|
A|------------------10-1010-10-1010-10-1010-10---------------------------------|
D--7-77-7-77-7-77-7----------------------------10-1010-10-1010-10-1010---------|

-----------------------------------------------------------------------------|
-----------------------------------------------------------------------------|
-----------------------------------------------------------------------------|
-8-88-8-88-8-88-8 REPEAT --3-2-----------------------------------------------|

ONE LAST KISS BERFORE I GO......
G|-----------------------------------------------------------------------------|
D|-----------------------------------------------------------------------------|
A|-----------------------------------------------------------------------------|
D|-00000000000000-3-2- REPEAT 4X -000000000000000------------------------------|

REPEAT THIS TWICE THEN PLAY CHORUS

G|-----------------------------------------------------------------------------|
D|-----------------------------------------------------------------------------|
A|-----------------------------------------------------------------------------|
D|-00000000333333335555555544444444-3-2----------------------------------------|

PLAY INTRO TWICE AND END IT WITH
G|-----------------------------------------------------------------------------|
D|-----------------------------------------------------------------------------|
A|-----------------------------------------------------------------------------|
D--3-2-0-----------------------------------------------------------------------|


| /  slide up
| \  slide down
| h  hammer-on
| p  pull-off
| ~  vibrato
| +  harmonic
| x  Mute note
Suggest correction
Creating personal tab
Creating personal tab
You can edit any tab online and save it as your Personal.

You can edit, replace or remove any tab part or add personal notes – all changes will be seen only by you.

Personal tabs can be accessed anytime from any device, even offline.
Learn more »
comments
print report bad tab
3 comments total.
0 reply
Ryan92631043 10 Mar 11, 2007 08:30 PM

It doesnt sound to me like this tab is played on the right notes. Everything appears to be in the right place but the notes are wrong.

0 reply
a_esala00 10 Apr 25, 2007 06:53 PM

This sounds really mean but... wrong... good try tho.

0 reply
Jabber35 10 Dec 05, 2010 10:09 AM

This should start on the 5th fret on the A string not the 3rd!

guest
Wanna post a correction for this tab? Suggest correction