Oops, an error
Loading. Please wait.

Forever tab

version 3
version 3

Whole song

Interactive

80,033 views 18 this week
7 commentsread comments
1 2 3 4 5
x 25
add to favorites
×
Save as Personal and add changes to this tab that will be seen only by you. Learn more ›
×
You can save this tab as Personal to edit and correct it or add notes. All changes will be seen only by you. Learn more »
launch autoscroll
font size
0
reset
how to read this tab
guitar tuner
backing track
0:00
0:00
edit
Autoscroll
slow
fast
+/-
esc
set tempo
stop
Gtr I (D A D G B E) - 'Jerry Backing 1'
Gtr II (D A D G B E) - 'Jerry Clean Main'
Gtr III (D A D G B E) - 'Jerry Clean Delay'
Gtr IV (D A D G B E) - 'Jerry Main'
Gtr V (D A D G B E) - 'Strings'

[Intro]
Q=112
4/4
[Gtr I]

[Verse]
N.C.
[Gtr I]
     <
     W            W
E|------------|--------|
B|-/13--------|-/11----|
G|------------|--------|
D|------------|--------|
A|------------|--------|
D|------------|--------|

     W            W            W            W
E|------------|------------|------------|--------|
B|-/10--------|-/13--------|------------|--------|
G|------------|------------|-/10--------|-/12----|
D|------------|------------|------------|--------|
A|------------|------------|------------|--------|
D|------------|------------|------------|--------|

     W            W            W            W
E|------------|------------|------------|--------|
B|-/10--------|------------|------------|--------|
G|------------|-/12--------|-/10--------|-/12----|
D|------------|------------|------------|--------|
A|------------|------------|------------|--------|
D|------------|------------|------------|--------|

[Pre-Chorus]
   N.C.
[Gtr II]
    Q       E   E    Q        E   E      H.            Q
E|-----------------------------------|-----------------------|
B|-11------11--10------------10------|-----------------------|
G|------------------10-----------12--|---9-------------9-----|
D|-----------------------------------|-----------------------|
A|-----------------------------------|-----------------------|
D|-----------------------------------|-----------------------|

[Gtr III]
    E   Q       E    E    Q       E      E   Q.    Q.     E
E|-----------------------------------|-----------------------|
B|----(11)----(11)-(10)---------(10)-|-----------------------|
G|----------------------(10)---------|-(12)-(9)---(9)----(9)-|
D|-----------------------------------|-----------------------|
A|-----------------------------------|-----------------------|
D|-----------------------------------|-----------------------|
  
[Gtr I]
    W                                    W
E|-----------------------------------|-----------------------|
B|-----------------------------------|-----------------------|
G|-/7--------------------------------|--/9-------------------|
D|-----------------------------------|-----------------------|
A|-----------------------------------|-----------------------|
D|-----------------------------------|-----------------------|

[Gtr IV]
     E   E  H             Q          E   E  Q.            +S  S S S E
E|-------------------------------|--------------------------------------|
B|-------------------------------|--------------------------------------|
G|---7---9-10------------10------|---9--10-12------------(12)-----------|
D|-------------------------------|----------------------------x-x-x-x---|
A|-------------------------------|----------------------------x-x-x-x---|
D|-------------------------------|----------------------------x-x-x-x---|
 
    +Q      E   E    H               Q      E    E    H
E|-------------------------------|--------------------------------------|
B|-------------------------------|--------------------------------------|
G|--(9)----(7)-(9)-(10)----------|-(10)----(9)-(10)-(12)----------------|
D|-------------------------------|--------------------------------------|
A|-------------------------------|--------------------------------------|
D|-------------------------------|--------------------------------------|
 
     H..                     +E      H.                         Q
E|-------------------------------|--------------------------------------|
B|-/13----------------------(13)s|==11----------------------------------|
G|-------------------------------|--------------------------------------|
D|-------------------------------|--------------------------------------|
A|-------------------------------|--------------------------------------|
D|-------------------------------|--------------------------------------|

[Chorus]
   D5                 F5
   E. S E E. S E Q     E.  S  E  E.  S  E  Q
E|------------------|-------------------------|
B|------------------|-------------------------|
G|-7--7-7-7--7-7-7--|-10--10-10-10--10-10-10--|
D|-7--7-7-7--7-7-7--|-10--10-10-10--10-10-10--|
A|-5--5-5-5--5-5-5--|--8---8--8--8---8--8--8--|
D|------------------|-------------------------|

   C5                 Bb5           N.C.
   E. S E E. S E Q    E. S E E. S E S S S S
E|------------------|-------------------------|
B|------------------|-------------------------|
G|-5--5-5-5--5-5-5--|-3--3-3-3--3-3-----------|
D|-5--5-5-5--5-5-5--|-3--3-3-3--3-3-x-x-x-x---|
A|-3--3-3-3--3-3-3--|-1--1-1-1--1-1-x-x-x-x---|
D|------------------|---------------x-x-x-x---|

   D5                 F5
   E. S E E. S E Q     E.  S  E  E.  S  E  Q
E|------------------|-------------------------|
B|------------------|-------------------------|
G|-7--7-7-7--7-7-7--|-10--10-10-10--10-10-10--|
D|-7--7-7-7--7-7-7--|-10--10-10-10--10-10-10--|
A|-5--5-5-5--5-5-5--|--8---8--8--8---8--8--8--|
D|------------------|-------------------------|

   C5                 Bb5    N.F5 E5
   E. S E E. S E Q    E. S E E Q  Q
E|------------------|----------------|
B|------------------|----------------|
G|-5--5-5-5--5-5-5--|-3--3-3---------|
D|-5--5-5-5--5-5-5--|-3--3-3-x-3--2--|
A|-3--3-3-3--3-3-3--|-1--1-1-x-3--2--|
D|------------------|--------x-3--2--|

[Verse]
   D5
               >
   W          +W           W          W
E|----------|------------|----------|------|
B|----------|------------|----------|------|
G|----------|------------|----------|------|
D|-0--------|-(0)--------|----------|------|
A|-0--------|-(0)--------|----------|------|
D|-0--------|-(0)--------|----------|------|

[Gtr V]
                           <
   W           W           W          W
E|----------|------------|----------|------|
B|----------|------------|----------|------|
G|----------|------------|----------|------|
D|----------|------------|----------|------|
A|----------|------------|-3--------|-1----|
D|----------|------------|----------|------|

(N.C.)
[Gtr V]
     W          W          W          W
E|-----------|----------|----------|-------|
B|o----------|----------|----------|------o|
G|-----------|----------|----------|-------|
D|-----------|----------|----------|-------|
A|o-5--------|-8--------|-3--------|-1----o|
D|-----------|----------|----------|-------|

[Gtr II]
      E   E    E    Q        E   E    E      E    E    E    Q        E   E    E
E|--------------------------------------|---------------------------------------|
B|o----------10-------------------------|-------10---13---10-----------10-------|
G|------10--------10-----------10-------|--10----------------------10-------10--|
D|--12---------------------12-------12--|---------------------------------------|
A|o-------------------------------------|---------------------------------------|
D|--------------------------------------|---------------------------------------|
 
[Gtr III]
      E   E    E    E    Q       E    E      E    E    E    E    Q       E    E
E|--------------------------------------|---------------------------------------|
B|o--------------(10)-------------------|-----------(10)-(13)-(10)---------(10)-|
G|----------(10)------(10)---------(10)-|------(10)-------------------(10)------|
D|-----(12)-------------------(12)------|-(12)----------------------------------|
A|o-------------------------------------|---------------------------------------|
D|--------------------------------------|---------------------------------------|


     E    E    E    Q        E   E    E      E   E    E    Q       E  Q
E|---------------------------------------|--------------------------------------|
B|------------13-------------------------|-----------11------------------------o|
G|-------12--------12-----------12-------|------10--------10---------10---------|
D|--10----------------------10-------10--|---8---------------------8------------|
A|---------------------------------------|-------------------------------------o|
D|---------------------------------------|--------------------------------------|

     E    E    E    E    Q       E    E      E   E    E    E    Q     E    E
E|---------------------------------------|--------------------------------------|
B|----------------(13)-------------------|---------------(11)------------------o|
G|-(10)------(12)------(12)---------(12)-|----------(10)------(10)-------(10)---|
D|------(10)-------------------(10)------|-(10)-(8)------------------(8)--------|
A|---------------------------------------|-------------------------------------o|
D|---------------------------------------|--------------------------------------|

[Pre-Chorus]
   (N.C.)
    Q       E   E    Q        E   E      H.            Q
E|-----------------------------------|-----------------------|
B|-11------11--10------------10------|-----------------------|
G|------------------10-----------12--|---9-------------9-----|
D|-----------------------------------|-----------------------|
A|-----------------------------------|-----------------------|
D|-----------------------------------|-----------------------|
 
    E   Q       E    E    Q       E      E   Q.    Q.     E
E|-----------------------------------|-----------------------|
B|----(11)----(11)-(10)---------(10)-|-----------------------|
G|----------------------(10)---------|-(12)-(9)---(9)----(9)-|
D|-----------------------------------|-----------------------|
A|-----------------------------------|-----------------------|
D|-----------------------------------|-----------------------|
 
[Gtr V]
    W                                   +W
E|-17--------------------------------|-(17)------------------|
B|-15--------------------------------|-(15)------------------|
G|-----------------------------------|-----------------------|
D|-----------------------------------|-----------------------|
A|-----------------------------------|-----------------------|
D|-----------------------------------|-----------------------|

[Gtr IV]
     E  E  H             Q      E   E  Q.            +S  S S S E
E|--------------------------|--------------------------------------|
B|--------------------------|--------------------------------------|
G|---7--9-10------------10--|---9--10-12------------(12)-----------|
D|--------------------------|----------------------------x-x-x-x---|
A|--------------------------|----------------------------x-x-x-x---|
D|--------------------------|----------------------------x-x-x-x---|
 
    +Q     E   E    H           Q      E    E    H
E|--------------------------|--------------------------------------|
B|--------------------------|--------------------------------------|
G|--(9)---(7)-(9)-(10)------|-(10)----(9)-(10)-(12)----------------|
D|--------------------------|--------------------------------------|
A|--------------------------|--------------------------------------|
D|--------------------------|--------------------------------------|
 
    +W                         +H.                         Q
E|-(17)---------------------|-(17)---------------------------------|
B|-(15)---------------------|-(15)---------------------------------|
G|--------------------------|--------------------------------------|
D|--------------------------|--------------------------------------|
A|--------------------------|--------------------------------------|
D|--------------------------|--------------------------------------|

[Chorus]
(D5)                 (F5)

[Gtr IV]
   E. S E E. S E Q     E.  S  E  E.  S  E  Q
E|------------------|-------------------------|
B|------------------|-------------------------|
G|-7--7-7-7--7-7-7--|-10--10-10-10--10-10-10--|
D|-7--7-7-7--7-7-7--|-10--10-10-10--10-10-10--|
A|-5--5-5-5--5-5-5--|--8---8--8--8---8--8--8--|
D|------------------|-------------------------|

   C5                 Bb5           N.C.
   E. S E E. S E Q    E. S E E. S E S S S S
E|------------------|-------------------------|
B|------------------|-------------------------|
G|-5--5-5-5--5-5-5--|-3--3-3-3--3-3-----------|
D|-5--5-5-5--5-5-5--|-3--3-3-3--3-3-x-x-x-x---|
A|-3--3-3-3--3-3-3--|-1--1-1-1--1-1-x-x-x-x---|
D|------------------|---------------x-x-x-x---|

   D5                 F5
   E. S E E. S E Q     E.  S  E  E.  S  E  Q
E|------------------|-------------------------|
B|------------------|-------------------------|
G|-7--7-7-7--7-7-7--|-10--10-10-10--10-10-10--|
D|-7--7-7-7--7-7-7--|-10--10-10-10--10-10-10--|
A|-5--5-5-5--5-5-5--|--8---8--8--8---8--8--8--|
D|------------------|-------------------------|

   C5                 Bb5    N.F5 E5
   E. S E E. S E Q    E. S E E Q  Q
E|------------------|----------------|
B|------------------|----------------|
G|-5--5-5-5--5-5-5--|-3--3-3---------|
D|-5--5-5-5--5-5-5--|-3--3-3-x-3--2--|
A|-3--3-3-3--3-3-3--|-1--1-1-x-3--2--|
D|------------------|--------x-3--2--|

[Bridge]
   D5                        F5 E5   C5                        F5 E5
   E E E E E E E E   E E E E Q  Q    E E E E E E E E   E E E E Q  Q
E|-----------------|---------------|-----------------|---------------|
B|-----------------|---------------|-----------------|---------------|
G|-----------------|---------------|-5-5-5-5-5-5-5-5-|-5-5-5-5-------|
D|-7-7-7-7-7-7-7-7-|-7-7-7-7-3--2--|-5-5-5-5-5-5-5-5-|-5-5-5-5-3--2--|
A|-0-0-0-0-0-0-0-0-|-0-0-0-0-3--2--|-3-3-3-3-3-3-3-3-|-3-3-3-3-3--2--|
D|-0-0-0-0-0-0-0-0-|-0-0-0-0-3--2--|-----------------|---------3--2--|

   Bb5                       F5 E5   G5                A5      F5 E5
   E E E E E E E E   E E E E Q  Q    E E E E E E E E   E E E E Q  Q
E|-----------------|---------------|-----------------|---------------|
B|-----------------|---------------|-----------------|---------------|
G|-3-3-3-3-3-3-3-3-|-3-3-3-3-------|-----------------|---------------|
D|-3-3-3-3-3-3-3-3-|-3-3-3-3-3--2--|-5-5-5-5-5-5-5-5-|-7-7-7-7-3--2--|
A|-1-1-1-1-1-1-1-1-|-1-1-1-1-3--2--|-5-5-5-5-5-5-5-5-|-7-7-7-7-3--2--|
D|-----------------|---------3--2--|-5-5-5-5-5-5-5-5-|-7-7-7-7-3--2--|

   D5                        F5 E5   C5                        F5 E5
   E E E E E E E E   E E E E Q  Q    E E E E E E E E   E E E E Q  Q
E|-----------------|---------------|-----------------|---------------|
B|-----------------|---------------|-----------------|---------------|
G|-----------------|---------------|-5-5-5-5-5-5-5-5-|-5-5-5-5-------|
D|-7-7-7-7-7-7-7-7-|-7-7-7-7-3--2--|-5-5-5-5-5-5-5-5-|-5-5-5-5-3--2--|
A|-0-0-0-0-0-0-0-0-|-0-0-0-0-3--2--|-3-3-3-3-3-3-3-3-|-3-3-3-3-3--2--|
D|-0-0-0-0-0-0-0-0-|-0-0-0-0-3--2--|-----------------|---------3--2--|

   Bb5                       F5 E5   G5                A5
   E E E E E E E E   E E E E Q  Q    E E E E E E E E   Q   H.
E|-----------------|---------------|-----------------|-----------|
B|-----------------|---------------|-----------------|-----------|
G|-3-3-3-3-3-3-3-3-|-3-3-3-3-------|-----------------|-----------|
D|-3-3-3-3-3-3-3-3-|-3-3-3-3-3--2--|-5-5-5-5-5-5-5-5-|-7\--------|
A|-1-1-1-1-1-1-1-1-|-1-1-1-1-3--2--|-5-5-5-5-5-5-5-5-|-7\--------|
D|-----------------|---------3--2--|-5-5-5-5-5-5-5-5-|-7\--------|

[Chorus]
   D5                 F5
   E. S E E. S E Q     E.  S  E  E.  S  E  Q
E|------------------|-------------------------|
B|------------------|-------------------------|
G|-7--7-7-7--7-7-7--|-10--10-10-10--10-10-10--|
D|-7--7-7-7--7-7-7--|-10--10-10-10--10-10-10--|
A|-5--5-5-5--5-5-5--|--8---8--8--8---8--8--8--|
D|------------------|-------------------------|

   C5                 Bb5           N.C.
   E. S E E. S E Q    E. S E E. S E S S S S
E|------------------|-------------------------|
B|------------------|-------------------------|
G|-5--5-5-5--5-5-5--|-3--3-3-3--3-3-----------|
D|-5--5-5-5--5-5-5--|-3--3-3-3--3-3-x-x-x-x---|
A|-3--3-3-3--3-3-3--|-1--1-1-1--1-1-x-x-x-x---|
D|------------------|---------------x-x-x-x---|

   D5                 F5
   E. S E E. S E Q     E.  S  E  E.  S  E  Q
E|------------------|-------------------------|
B|------------------|-------------------------|
G|-7--7-7-7--7-7-7--|-10--10-10-10--10-10-10--|
D|-7--7-7-7--7-7-7--|-10--10-10-10--10-10-10--|
A|-5--5-5-5--5-5-5--|--8---8--8--8---8--8--8--|
D|------------------|-------------------------|

   C5                 Bb5    N.F5 E5
   E. S E E. S E Q    E. S E E Q  Q
E|------------------|----------------|
B|------------------|----------------|
G|-5--5-5-5--5-5-5--|-3--3-3---------|
D|-5--5-5-5--5-5-5--|-3--3-3-x-3--2--|
A|-3--3-3-3--3-3-3--|-1--1-1-x-3--2--|
D|------------------|--------x-3--2--|

   D5                F5
   E E E E E E E E    E  E  E  E  E  E  E  E
E|-----------------|-------------------------|
B|-----------------|-------------------------|
G|-7-7-7-7-7-7-7-7-|-10-10-10-10-10-10-10-10-|
D|-7-7-7-7-7-7-7-7-|-10-10-10-10-10-10-10-10-|
A|-5-5-5-5-5-5-5-5-|--8--8--8--8--8--8--8--8-|
D|-----------------|-------------------------|

   C5                Bb5
   E E E E E E E E   E E E E E E E E
E|-----------------|-----------------|
B|-----------------|-----------------|
G|-5-5-5-5-5-5-5-5-|-3-3-3-3-3-3-3-3-|
D|-5-5-5-5-5-5-5-5-|-3-3-3-3-3-3-3-3-|
A|-3-3-3-3-3-3-3-3-|-1-1-1-1-1-1-1-1-|
D|-----------------|-----------------|

   D5                F5                        C5                Bb5   N.F5 E5
   E E E E E E E E    E  E  E  E  E  E  E  E   E E E E E E E E   E E E E Q  Q
E|-----------------|-------------------------|-----------------|---------------|
B|-----------------|-------------------------|-----------------|---------------|
G|-7-7-7-7-7-7-7-7-|-10-10-10-10-10-10-10-10-|-5-5-5-5-5-5-5-5-|-3-3-3---------|
D|-7-7-7-7-7-7-7-7-|-10-10-10-10-10-10-10-10-|-5-5-5-5-5-5-5-5-|-3-3-3-x-3--2--|
A|-5-5-5-5-5-5-5-5-|--8--8--8--8--8--8--8--8-|-3-3-3-3-3-3-3-3-|-1-1-1-x-3--2--|
D|-----------------|-------------------------|-----------------|-------x-3--2--|

[Outro]
  (D5)                                   (N.C.)

[Gtr V]
                            >            <
   W          +W           +W            W
E|----------|------------|------------|-------|
B|----------|------------|------------|-10----|
G|----------|------------|------------|--7----|
D|-0--------|-(0)--------|-(0)--------|-------|
A|-0--------|-(0)--------|-(0)--------|-------|
D|-0--------|-(0)--------|-(0)--------|-------|


[Gtr V]
    +W            +W            +W            +W           W
E|-------------|-------------|-------------|-------------|------|
B|-(10)--------|-(10)--------|-(10)--------|-(10)--------|------|
G|--(7)--------|--(7)--------|--(7)--------|--(7)--------|------|
D|-------------|-------------|-------------|-------------|------|
A|-------------|-------------|-------------|-------------|------|
D|-------------|-------------|-------------|-------------|------|

*************************************************************************************************

W - whole; H - half; Q - quarter; E - 8th; S - 16th; T - 32nd; X - 64th; a - acciaccatura
+ - note tied to previous; . - note dotted; .. - note double dotted
Uncapitalized letters represent notes that are staccato (1/2 duration)
Irregular groupings are notated above the duration line
Duration letters will always appear directly above the note/fret number it represents the
duration for.  Duration letters with no fret number below them represent rests.  Multi-
bar rests are notated in the form Wxn, where n is the number of bars to rest for.  Low
melody durations appear below the staff

 h   - hammer-on
 p   - pull-off
 b   - bend
 pb  - pre-bend
 r   - bend release (if no number after the r, then release immediately)
 /\  - slide into or out of (from/to "nowhere")
 s   - legato slide
 S   - shift slide
 - natural harmonic
[n]  - artificial harmonic
n(n) - tapped harmonic
 ~   - vibrato
 tr  - trill
 T   - tap
 TP  - trem. picking
 PM  - palm muting
\n/  - tremolo bar dip; n = amount to dip
 \n  - tremolo bar down
 n/  - tremolo bar up
/n\  - tremolo bar inverted dip
 =   - hold bend; also acts as connecting device for hammers/pulls
 <> - volume swell (louder/softer)
 x   - on rhythm slash represents muted slash
 o   - on rhythm slash represents single note slash

 |  - bar
||  - double bar
||o - repeat start
o|| - repeat end
*|  - double bar (ending)
 :  - bar (freetime)
 $  - Segno
 &  - Coda
Tempo markers -  = BPM(8/16=s8/s16), where s8 = swing 8ths, s16 = swing 16ths

**************************************************************************************************

            
            
Suggest correction
Creating personal tab
Creating personal tab
You can edit any tab online and save it as your Personal.

You can edit, replace or remove any tab part or add personal notes – all changes will be seen only by you.

Personal tabs can be accessed anytime from any device, even offline.
Learn more »
comments
print report bad tab
7 comments total. Showing first comments.
0 reply
j.r.d. 10 Jan 01, 2008 05:25 AM

Hey dude, this tab is perfect

nice one

0 reply
jhull40 10 Mar 22, 2008 05:35 AM

Wow, this is 100% correct. Excellent job.

0 reply
gaby_villanueva 12 Jan 01, 2009 09:55 AM

i dont get it..

guest
You may want to rate the tab now too:
select rating
Wanna post a correction for this tab? Suggest correction