Oops, an error
Loading. Please wait.

Forever tab

version 4
version 4

Whole song

Interactive

5,223 views 1 this week
5 commentsread comments
1 2 3 4 5
x 3
add to favorites
×
Save as Personal and add changes to this tab that will be seen only by you. Learn more ›
×
You can save this tab as Personal to edit and correct it or add notes. All changes will be seen only by you. Learn more »
launch autoscroll
font size
0
reset
how to read this tab
guitar tuner
backing track
0:00
0:00
edit
Autoscroll
slow
fast
+/-
esc
set tempo
stop
Title: Forever
Artist: Papa Roach

Tuning: Drop D - DADGBE

Key: 	x = muted note
	\ = slide down
	PM = palm mute

Couple of notes first:
I tab out everthing precisely, which means even small differences are written down (i 
put a times 2 (x2) unless it's EXACTLY the same thing twice), therefore, even though this 
is long, it's a lot of repitition with minor variations.
Also, I like to play through the whole song, so i addapted bass parts for guitar (the 
are higher, but i can't really do anything about that) so pretty much anything with a palm 
here is an addapted bass part


Intro x3
e|-----------------------------------------------------|
B|-----------------------------------------------------|
G|-----------------------------------------------------|
D|-----------------------------------------------------|
A|-----------------------------------------------------|
D|--12-12-12-12-12-12-12-12-15-15-15-15-15-15-15-15----|
   |----------------------PM---------------------------|

e|---------------------------------------------|
B|---------------------------------------------|
G|---------------------------------------------|
D|---------------------------------------------|
A|---------------------------------------------|
D|--10-10-10-10-10-10-10-10-8-8-8-8-8-8-8-8----|
   |------------------PM-----------------------|

e|-----------------------------------------------------|
B|-----------------------------------------------------|
G|-----------------------------------------------------|
D|-----------------------------------------------------|
A|-----------------------------------------------------|
D|--12-12-12-12-12-12-12-12-15-15-15-15-15-15-15-15----|
   |----------------------PM---------------------------|

e|-----------------------------------------------|
B|-----------------------------------------------|
G|-----------------------------------------------|
D|-----------------------------------------------|
A|-----------------------------------------------|
D|--10-10-10-10-10-10-10-10-8-8-8-8-8-8-10-10----|
   |-------------------PM------------------------|


Pre-Chorus
e|-----------------------------------------------------|
B|--11---11-10-----10-8--------------------------------|
G|--------------10-------9----9--7-9-10---10--9-10-12--|
D|-----------------------------------------------------|
A|-----------------------------------------------------|
D|-----------------------------------------------------|


Chorus
e|--------------------------------------------------------|
B|--------------------------------------------------------|
G|-xxxx-7--7-7-7--7-7-7--77-10--10-10-10--10-10-10--1010--|
D|-xxxx-7--7-7-7--7-7-7--77-10--10-10-10--10-10-10--1010--|
A|-xxxx-5--5-5-5--5-5-5--55--8---8--8--8---8--8--8---8-8--|
D|--------------------------------------------------------|

e|-----------------------------------------------|
B|-----------------------------------------------|
G|-----------------------------------------------|
D|--10--10-10-10--10-10-10--1010--8--8-8-8--8-8--|
A|--10--10-10-10--10-10-10--1010--8--8-8-8--8-8--|
D|--10--10-10-10--10-10-10--1010--8--8-8-8--8-8--|

e|--------------------------------------------------------|
B|--------------------------------------------------------|
G|-xxxx-7--7-7-7--7-7-7--77-10--10-10-10--10-10-10--1010--|
D|-xxxx-7--7-7-7--7-7-7--77-10--10-10-10--10-10-10--1010--|
A|-xxxx-5--5-5-5--5-5-5--55--8---8--8--8---8--8--8---8-8--|
D|--------------------------------------------------------|

e|---------------------------------------------------|
B|---------------------------------------------------|
G|---------------------------------------------------|
D|--10--10-10-10--10-10-10--1010--8--8-8-8--3--2--0--|
A|--10--10-10-10--10-10-10--1010--8--8-8-8--3--2--0--|
D|--10--10-10-10--10-10-10--1010--8--8-8-8--3--2--0--|


Verse
e|-----------------------------------------------------|
B|-----------------------------------------------------|
G|-----------------------------------------------------|
D|-----------------------------------------------------|
A|-----------------------------------------------------|
D|--12-12-12-12-12-12-12-12-15-15-15-15-15-15-15-15----|
   |----------------------PM---------------------------|

e|-----------------------------------------------|
B|-----------------------------------------------|
G|-----------------------------------------------|
D|-----------------------------------------------|
A|-----------------------------------------------|
D|--10-10-10-10-10-10-10-10-8-8-8-8-8-8-10-10----|
   |-------------------PM------------------------|

e|-----------------------------------------------------|
B|-----------------------------------------------------|
G|-----------------------------------------------------|
D|-----------------------------------------------------|
A|-----------------------------------------------------|
D|--12-12-12-12-12-12-12-12-15-15-15-15-15-15-15-15----|
   |----------------------PM---------------------------|

e|---------------------------------------------|
B|---------------------------------------------|
G|---------------------------------------------|
D|---------------------------------------------|
A|---------------------------------------------|
D|--10-10-10-10-10-10-10-10-8-8-8-8-8-8-8-8----|
   |------------------PM-----------------------|

e|-----------------------------------------------------|
B|-----------------------------------------------------|
G|-----------------------------------------------------|
D|-----------------------------------------------------|
A|-----------------------------------------------------|
D|--12-12-12-12-12-12-12-12-15-15-15-15-15-15-15-15----|
   |----------------------PM---------------------------|

e|-----------------------------------------------|
B|-----------------------------------------------|
G|-----------------------------------------------|
D|-----------------------------------------------|
A|-----------------------------------------------|
D|--10-10-10-10-10-10-10-10-8-8-8-8-8-8-10-10----|
   |-------------------PM------------------------|


Verse Part II x2
e|-------------------------------------------------|
B|--------10------------------10-13-10------10-----|
G|-----10----10------10----10------------10----10--|
D|--12------------12----12-------------------------|
A|-------------------------------------------------|
D|-------------------------------------------------|

e|-------------------------------------------|
B|--------13-------------------11------------|
G|-----12----12------12\----10----10-----10--|
D|--10------------10------8------------8-----|
A|-------------------------------------------|
D|-------------------------------------------|


Pre-Chorus
e|-----------------------------------------------------|
B|--11---11-10-----10-8--------------------------------|
G|--------------10-------9----9--7-9-10---10--9-10-12--|
D|-----------------------------------------------------|
A|-----------------------------------------------------|
D|-----------------------------------------------------|


Chorus
e|--------------------------------------------------------|
B|--------------------------------------------------------|
G|-xxxx-7--7-7-7--7-7-7--77-10--10-10-10--10-10-10--1010--|
D|-xxxx-7--7-7-7--7-7-7--77-10--10-10-10--10-10-10--1010--|
A|-xxxx-5--5-5-5--5-5-5--55--8---8--8--8---8--8--8---8-8--|
D|--------------------------------------------------------|

e|-----------------------------------------------|
B|-----------------------------------------------|
G|-----------------------------------------------|
D|--10--10-10-10--10-10-10--1010--8--8-8-8--8-8--|
A|--10--10-10-10--10-10-10--1010--8--8-8-8--8-8--|
D|--10--10-10-10--10-10-10--1010--8--8-8-8--8-8--|

e|--------------------------------------------------------|
B|--------------------------------------------------------|
G|-xxxx-7--7-7-7--7-7-7--77-10--10-10-10--10-10-10--1010--|
D|-xxxx-7--7-7-7--7-7-7--77-10--10-10-10--10-10-10--1010--|
A|-xxxx-5--5-5-5--5-5-5--55--8---8--8--8---8--8--8---8-8--|
D|--------------------------------------------------------|

e|------------------------------------------|
B|------------------------------------------|
G|------------------------------------------|
D|--10--10-10-10--10-10-10--1010--8--8-8-8--|
A|--10--10-10-10--10-10-10--1010--8--8-8-8--|
D|--10--10-10-10--10-10-10--1010--8--8-8-8--|


Bridge
e|---------------------------------------------------------------|
B|---------------------------------------------------------------|
G|--------7-7-7-7-7-7-7-7-7-7-7-7-------5-5-5-5-5-5-5-5-5-5-5-5--|
D|--3--2--7-7-7-7-7-7-7-7-7-7-7-7-3--2--5-5-5-5-5-5-5-5-5-5-5-5--|
A|--3--2--5-5-5-5-5-5-5-5-5-5-5-5-3--2--3-3-3-3-3-3-3-3-3-3-3-3--|
D|--3--2--------------------------3--2---------------------------|

e|---------------------------------------------------------------|
B|---------------------------------------------------------------|
G|--------3-3-3-3-3-3-3-3-3-3-3-3--------------------------------|
D|--3--2--3-3-3-3-3-3-3-3-3-3-3-3-3--2--5-5-5-5-5-5-5-5-7-7-7-7--|
A|--3--2--1-1-1-1-1-1-1-1-1-1-1-1-3--2--5-5-5-5-5-5-5-5-7-7-7-7--|
D|--3--2--------------------------3--2--5-5-5-5-5-5-5-5-7-7-7-7--|

e|---------------------------------------------------------------|
B|---------------------------------------------------------------|
G|--------7-7-7-7-7-7-7-7-7-7-7-7-------5-5-5-5-5-5-5-5-5-5-5-5--|
D|--3--2--7-7-7-7-7-7-7-7-7-7-7-7-3--2--5-5-5-5-5-5-5-5-5-5-5-5--|
A|--3--2--5-5-5-5-5-5-5-5-5-5-5-5-3--2--3-3-3-3-3-3-3-3-3-3-3-3--|
D|--3--2--------------------------3--2---------------------------|

e|---------------------------------------------------------|
B|---------------------------------------------------------|
G|--------3-3-3-3-3-3-3-3-3-3-3-3--------------------------|
D|--3--2--3-3-3-3-3-3-3-3-3-3-3-3-3--2--5-5-5-5-5-5-5-5-7--|
A|--3--2--1-1-1-1-1-1-1-1-1-1-1-1-3--2--5-5-5-5-5-5-5-5-7--|
D|--3--2--------------------------3--2--5-5-5-5-5-5-5-5-7--|


Chorus
e|--------------------------------------------------------|
B|--------------------------------------------------------|
G|-xxxx-7--7-7-7--7-7-7--77-10--10-10-10--10-10-10--1010--|
D|-xxxx-7--7-7-7--7-7-7--77-10--10-10-10--10-10-10--1010--|
A|-xxxx-5--5-5-5--5-5-5--55--8---8--8--8---8--8--8---8-8--|
D|--------------------------------------------------------|

e|-----------------------------------------------|
B|-----------------------------------------------|
G|-----------------------------------------------|
D|--10--10-10-10--10-10-10--1010--8--8-8-8--8-8--|
A|--10--10-10-10--10-10-10--1010--8--8-8-8--8-8--|
D|--10--10-10-10--10-10-10--1010--8--8-8-8--8-8--|

e|--------------------------------------------------------|
B|--------------------------------------------------------|
G|-xxxx-7--7-7-7--7-7-7--77-10--10-10-10--10-10-10--1010--|
D|-xxxx-7--7-7-7--7-7-7--77-10--10-10-10--10-10-10--1010--|
A|-xxxx-5--5-5-5--5-5-5--55--8---8--8--8---8--8--8---8-8--|
D|--------------------------------------------------------|

e|-----------------------------------------------|
B|-----------------------------------------------|
G|-----------------------------------------------|
D|--10--10-10-10--10-10-10--1010--8--8-8-8--3-2--|
A|--10--10-10-10--10-10-10--1010--8--8-8-8--3-2--|
D|--10--10-10-10--10-10-10--1010--8--8-8-8--3-2--|


End Chorus
e|-------------------------------------------|
B|-------------------------------------------|
G|--7-7-7-7-7-7-7-7-10-10-10-10-10-10-10-10--|
D|--7-7-7-7-7-7-7-7-10-10-10-10-10-10-10-10--|
A|--5-5-5-5-5-5-5-5--8--8--8--8--8--8--8--8--|
D|-------------------------------------------|

e|--------------------------------------------|
B|--------------------------------------------|
G|--------------------------------------------|
D|--10-10-10-10-10-10-10-10--8-8-8-8-8-8-8-8--|
A|--10-10-10-10-10-10-10-10--8-8-8-8-8-8-8-8--|
D|--10-10-10-10-10-10-10-10--8-8-8-8-8-8-8-8--|

e|-------------------------------------------|
B|-------------------------------------------|
G|--7-7-7-7-7-7-7-7-10-10-10-10-10-10-10-10--|
D|--7-7-7-7-7-7-7-7-10-10-10-10-10-10-10-10--|
A|--5-5-5-5-5-5-5-5--8--8--8--8--8--8--8--8--|
D|-------------------------------------------|

e|--------------------------------------------|
B|--------------------------------------------|
G|--------------------------------------------|
D|--10-10-10-10-10-10-10-10--8-8-8-8-3--2--0--|
A|--10-10-10-10-10-10-10-10--8-8-8-8-3--2--0--|
D|--10-10-10-10-10-10-10-10--8-8-8-8-3--2--0--|


Outro
e|-----------------------------------------------------|
B|-----------------------------------------------------|
G|-----------------------------------------------------|
D|-----------------------------------------------------|
A|-----------------------------------------------------|
D|--12-12-12-12-12-12-12-12-15-15-15-15-15-15-15-15----|
   |----------------------PM---------------------------|

e|---------------------------------------------|
B|---------------------------------------------|
G|---------------------------------------------|
D|---------------------------------------------|
A|---------------------------------------------|
D|--10-10-10-10-10-10-10-10-8-8-8-8-8-8-8-8----|
   |------------------PM-----------------------|

e|-----------------------------------------------------|
B|-----------------------------------------------------|
G|-----------------------------------------------------|
D|-----------------------------------------------------|
A|-----------------------------------------------------|
D|--12-12-12-12-12-12-12-12-15-15-15-15-15-15-15-15----|
   |----------------------PM---------------------------|

e|--------------------------------------------------|
B|--------------------------------------------------|
G|--------------------------------------------------|
D|--------------------------------------------------|
A|----------------------------------13-13-13-12-----|
D|--10-10-10-10-10-10-10-10-8-8-8-8-------------0---|
   |---------------------PM-------------------------|

            
            
Suggest correction
Creating personal tab
Creating personal tab
You can edit any tab online and save it as your Personal.

You can edit, replace or remove any tab part or add personal notes – all changes will be seen only by you.

Personal tabs can be accessed anytime from any device, even offline.
Learn more »
Give kudos to tab author, rate the tab!
1 2 3 4 5
comments
print report bad tab
5 comments total. Showing first comments.
+1 reply
aidenundrgrnd 52 Jul 16, 2007 06:05 PM

hey good tab, lots of people like to see details where others leave a few things out. but any way, in your pre-chorus you have tabbed out:

e|-----------------------------------------------------|
B|--11---11-10-----10-8--------------------------------|
G|--------------10-------9----9--7-9-10---10--9-10-12--|
D|-----------------------------------------------------|
A|-----------------------------------------------------|
D|-----------------------------------------------------|

when there should be another note on the second fret near the beginning like so . .

e|-----------------------------------------------------|
B|--11-11-11-10-----10-8--------------------------------|
G|-----^-------10-------9----9--7-9-10---10--9-10-12---|
D|-----|------------------------------------------------|
A|-----|------------------------------------------------|
D|-----|------------------------------------------------|
|
Here
how u had it kept the time but if u listen really carefully this is how it should be.

good tab tho

0 reply
webbster87 97 Sep 27, 2007 09:22 PM

yo good job! you got the "verse part II" nobody else has that part!

-1 reply
dragonlancer 10 Jul 27, 2008 01:37 PM

it was ok. i figured out the acoustic version

guest
You may want to rate the tab now too:
select rating
Wanna post a correction for this tab? Suggest correction