Oops, an error
Loading. Please wait.

Help tab

version 1
version 1

Whole song

14,479 views 435 this week
1 commentread comment
1 2 3 4 5
x 12
add to favorites
×
Save as Personal and add changes to this tab that will be seen only by you. Learn more ›
×
You can save this tab as Personal to edit and correct it or add notes. All changes will be seen only by you. Learn more »
launch autoscroll
font size
0
reset
how to read this tab
guitar tuner
edit
Autoscroll
slow
fast
+/-
esc
set tempo
stop
HELP

(Intro)
E|-----------------------------------------|
B|-----------------------------------------|
G|--4-4-X-2-----------11-11-11-11/9/7------|
D|--4-4-X----5-5-X-4--X--X--X--X--X-X------|
A|--2-2-X----5-5-X----9--9--9--9b/7/5------|
D|--2-2-X----5-5-X-------------------------|
    I THINK I NEED HELP

E|-----------------------------------------|
B|-----------------------------------------|
G|--4-4-X-2-----------11-11-11-11/9/7------|
D|--4-4-X----5-5-X-4--X--X--X--X--X-X------|
A|--2-2-X----5-5-X----9--9--9--9b/7/5------|
D|--2-2-X----5-5-X-------------------------|
    I’M DROWNING IN MYSELF

E|----------------------------------------|
B|--------------------3-3-3-3-------------|
G|--4-4-X-2-----------2-2-2-2---11/9/7----|
D|--4-4-X----5-5-X-4--0-0-0-0---X--X-X----|
A|--2-2-X----5-5-X--------------9b/7/5----|
D|--2-2-X----5-5-X------------------------|

E|----------------------------------------|
B|--------------------3-3-3-3-------------|
G|--4-4-X-2-----------2-2-2-2---11/9/7----|
D|--4-4-X----5-5-X-4--0-0-0-0---X--X-X----|
A|--2-2-X----5-5-X--------------9b/7/5----|
D|--2-2-X----5-5-X------------------------|

(Verse)
G|--------------------------------------------------------------------------|
D|--------------------------------------------------------------------------|
A|--2-2-2-2-2-2-------------------------------------------------------------|
D|-----------------------5-5-5-5-5-5--0-0-0-0--0-0-0-0--0-0-0-0--0-0-0-0----|
    DID SOMEONE TURN THE LIGHTS OUT

G|----------------------------------------------------------------------|
D|----------------------------------------------------------------------|
A|--2-2-2-2-2-2---------------------------------------------------------|
D|-------------------5-5-5-5-5-5--0-0-0-0--0-0-0-0--0-0-0-0--0-0-0-0----|
    OR IS IT JUST ANOTHER DARK CLOUD IN MY HEAD

E|----------------------------------------------|
B|----------------------------------------------|
G|--4-4-X-2----------------11-11-11-11/9/7------|
D|--4-4-X----5-5-X-4-------X--X--X--X--X-X------|
A|--2-2-X----5-5-X---------9--9--9--9b/7/5------|
D|--2-2-X----5-5-X------------------------------|
  CAUSE I’M  MY HEART      DEEP DOWN LOW IT’S
  CUT DEEP   WON’T BLEED   KILLING ME

E|----------------------------------------------|
B|----------------------------------------------|
G|--4-4-X-2----------------11-11-11-11/9/7------|
D|--4-4-X----5-5-X-4-------X--X--X--X--X-X------|
A|--2-2-X----5-5-X---------9--9--9--9b/7/5------|
D|--2-2-X----5-5-X------------------------------|
  I WANNA SCRATCH          I’VE GOT SO MUCH
  OUT YESTERDAY            I NEED TO SAY

E|--------------------------------------------------------------------------|
B|--------------------------------------------------------------------------|
G|--------------------------------------------------------------------------|
D|--------------------------------------------------------------------------|
A|--5-5-5-5--5-5-5-5--7-7-7-7--7-7-7-7--9-9-9-9-9-9-9-9--9-9-9-9-9-9-9-9----|
D|--------------------------------------------------------------------------|

(Chorus)
E|---------------------------------------------------|
B|----------------------------3-3-3-3-3--------------|
G|--4-4-4-X-4-4---------------2-2-2-2-2--11-/9-/7----|
D|--4-4-4-X-4-4--5-5-5-X-5-5--0-0-0-0-0--X---X--X----|
A|--2-2-2-X-2-2--5-5-5-X-5-5-------------9b/-7-/5----|
D|--2-2-2-X-2-2--5-5-5-X-5-5-------------------------|
    I THINK I NEED HELP

E|----------------------------------------------------------|
B|----------------------------3-3-3-3-3---------------------|
G|--4-4-4-X-4-4---------------2-2-2-2-2---------------------|
D|--4-4-4-X-4-4--5-5-5-X-5-5--0-0-0-0-0--7-7-7-7--7-7-7-7---|
A|--2-2-2-X-2-2--5-5-5-X-5-5-------------4-4-4-4--4-4-4-4---|
D|--2-2-2-X-2-2--5-5-5-X-5-5--------------------------------|
    CAUSE I’M DROWNING IN MYSELF

E|------------------------------------------------------|
B|---------------------3-3-3-3--------------------------|
G|--4-4-4-4------------2-2-2-2--------------------------|
D|--4-4-4-4--5-5-5-5---0-0-0-0--------------------------|
A|--2-2-2-2--5-5-5-5------------2/5-5-5-5-5-5-----------|
D|--2-2-2-2--5-5-5-5------------------------------------|
    IT’S SINKING IN  THAT I AIN’T BEEN THROUGH HELL
    I CAN’T PRETEND

E|-------------------------------------------------|
B|---------------------3-3-3-3---------------------|
G|--4-4-4-4------------2-2-2-2---------------------|
D|--4-4-4-4---5-5-5-5--0-0-0-0--7-7-7-7--7-7-7-7---|
A|--2-2-2-2---5-5-5-5-----------4-4-4-4--4-4-4-4---|
D|--2-2-2-2---5-5-5-5------------------------------|
    I THINK I NEED HELP I’M DROWNING IN MYSELF

E|----------------------------------------|
B|--------------------3-3-3-3-------------|
G|--4-4-X-2-----------2-2-2-2---11/9/7----|
D|--4-4-X----5-5-X-4--0-0-0-0---X--X-X----|
A|--2-2-X----5-5-X--------------9b/7/5----|
D|--2-2-X----5-5-X------------------------|

E|----------------------------------------|
B|--------------------3-3-3-3-------------|
G|--4-4-X-2-----------2-2-2-2---11/9/7----|
D|--4-4-X----5-5-X-4--0-0-0-0---X--X-X----|
A|--2-2-X----5-5-X--------------9b/7/5----|
D|--2-2-X----5-5-X------------------------|

(Verse)
G|--------------------------------------------------------------------------|
D|--------------------------------------------------------------------------|
A|--2-2-2-2-2-2-------------------------------------------------------------|
D|-----------------------5-5-5-5-5-5--0-0-0-0--0-0-0-0--0-0-0-0--0-0-0-0----|
    THEY’RE PREYING ON MY WEAKNESS                               BELIEVE IT

G|--------------------------------------------------------------------------|
D|--------------------------------------------------------------------------|
A|--2-2-2-2-2-2-------------------------------------------------------------|
D|-----------------------5-5-5-5-5-5--0-0-0-0--0-0-0-0--0-0-0-0--0-0-0-0----|
    I’M THINKING TO MYSELF NO NOT AGAIN

E|----------------------------------------|
B|--------------------3-3-3-3-------------|
G|--4-4-X-2-----------2-2-2-2---11/9/7----|
D|--4-4-X----5-5-X-4--0-0-0-0---X--X-X----|
A|--2-2-X----5-5-X--------------9b/7/5----|
D|--2-2-X----5-5-X------------------------|
  AND I WON’T KEEP  WHEN TEMPTATIONS
  LISTENING         CREEPING IN

E|----------------------------------------|
B|--------------------3-3-3-3-------------|
G|--4-4-X-2-----------2-2-2-2---11/9/7----|
D|--4-4-X----5-5-X-4--0-0-0-0---X--X-X----|
A|--2-2-X----5-5-X--------------9b/7/5----|
D|--2-2-X----5-5-X------------------------|
  IF I WANNA MAKE IT  I’VE GOT SO MUCH I
  ANOTHER DAY         NEED TO SAY

E|--------------------------------------------------------------------------|
B|--------------------------------------------------------------------------|
G|--------------------------------------------------------------------------|
D|--------------------------------------------------------------------------|
A|--5-5-5-5--5-5-5-5--7-7-7-7--7-7-7-7--9-9-9-9-9-9-9-9--9-9-9-9-9-9-9-9----|
D|--------------------------------------------------------------------------|

(Chorus)
E|---------------------------------------------------|
B|----------------------------3-3-3-3-3--------------|
G|--4-4-4-X-4-4---------------2-2-2-2-2--11-/9-/7----|
D|--4-4-4-X-4-4--5-5-5-X-5-5--0-0-0-0-0--X---X--X----|
A|--2-2-2-X-2-2--5-5-5-X-5-5-------------9b/-7-/5----|
D|--2-2-2-X-2-2--5-5-5-X-5-5-------------------------|
    I THINK I NEED HELP

E|----------------------------------------------------------|
B|----------------------------3-3-3-3-3---------------------|
G|--4-4-4-X-4-4---------------2-2-2-2-2---------------------|
D|--4-4-4-X-4-4--5-5-5-X-5-5--0-0-0-0-0--7-7-7-7--7-7-7-7---|
A|--2-2-2-X-2-2--5-5-5-X-5-5-------------4-4-4-4--4-4-4-4---|
D|--2-2-2-X-2-2--5-5-5-X-5-5--------------------------------|
    CAUSE I’M DROWNING IN MYSELF

E|------------------------------------------------------|
B|---------------------3-3-3-3--------------------------|
G|--4-4-4-4------------2-2-2-2--------------------------|
D|--4-4-4-4--5-5-5-5---0-0-0-0--------------------------|
A|--2-2-2-2--5-5-5-5------------2/5-5-5-5-5-5-----------|
D|--2-2-2-2--5-5-5-5------------------------------------|
    IT’S SINKING IN  THAT I AIN’T BEEN THROUGH HELL
    I CAN’T PRETEND

E|-------------------------------------------------|
B|---------------------3-3-3-3---------------------|
G|--4-4-4-4------------2-2-2-2---------------------|
D|--4-4-4-4---5-5-5-5--0-0-0-0--7-7-7-7--7-7-7-7---|
A|--2-2-2-2---5-5-5-5-----------4-4-4-4--4-4-4-4---|
D|--2-2-2-2---5-5-5-5------------------------------|
    I THINK I NEED HELP I’M DROWNING IN MYSELF

(Guitar Solo)
E|------------------------------------------------------------------|
B|-----5/7--7/15----14--------14/7--5b--2br-------------5b----------|
G|--7------------18----14-16----------------------2-4---------------|
D|---------------------------------------------4--------------------|
A|------------------------------------------------------------------|
D|------------------------------------------------------------------|

(Bridge)
E|-----------------------------------------|
B|-----------------------------------------|
G|--4-4-X-2-----------11-11-11-11/9/7------|
D|--4-4-X----5-5-X-4--X--X--X--X--X-X------|
A|--2-2-X----5-5-X----9--9--9--9b/7/5------|
D|--2-2-X----5-5-X-------------------------|
    I THINK I NEED HELP

E|-----------------------------------------|
B|-----------------------------------------|
G|--4-4-X-2------------7-------------------|
D|--4-4-X----5-5-X-4---5-------------------|
A|--2-2-X----5-5-X-----5-------------------|
D|--2-2-X----5-5-X-----5-------------------|
    CAUSE I’VE PUT MYSELF THROUGH HELL

(Chorus)
E|---------------------------------------------------|
B|----------------------------3-3-3-3-3--------------|
G|--4-4-4-X-4-4---------------2-2-2-2-2--11-/9-/7----|
D|--4-4-4-X-4-4--5-5-5-X-5-5--0-0-0-0-0--X---X--X----|
A|--2-2-2-X-2-2--5-5-5-X-5-5-------------9b/-7-/5----|
D|--2-2-2-X-2-2--5-5-5-X-5-5-------------------------|
    I THINK I NEED HELP

E|----------------------------------------------------------|
B|----------------------------3-3-3-3-3---------------------|
G|--4-4-4-X-4-4---------------2-2-2-2-2---------------------|
D|--4-4-4-X-4-4--5-5-5-X-5-5--0-0-0-0-0--7-7-7-7--7-7-7-7---|
A|--2-2-2-X-2-2--5-5-5-X-5-5-------------4-4-4-4--4-4-4-4---|
D|--2-2-2-X-2-2--5-5-5-X-5-5--------------------------------|
    CAUSE I’M DROWNING IN MYSELF

E|------------------------------------------------------|
B|---------------------3-3-3-3--------------------------|
G|--4-4-4-4------------2-2-2-2--------------------------|
D|--4-4-4-4--5-5-5-5---0-0-0-0--------------------------|
A|--2-2-2-2--5-5-5-5------------2/5-5-5-5-5-5-----------|
D|--2-2-2-2--5-5-5-5------------------------------------|
    IT’S SINKING IN  THAT I AIN’T BEEN THROUGH HELL
    I CAN’T PRETEND

E|--------------------------------------------------|
B|---------------------3-3-3-3----------------------|
G|--4-4-4-4------------2-2-2-2----------------------|
D|--4-4-4-4--5-5-5-5---0-0-0-0--7-7-7-7--7-7-7-7----|
A|--2-2-2-2--5-5-5-5------------4-4-4-4--4-4-4-4----|
D|--2-2-2-2--5-5-5-5--------------------------------|
    I THINK I NEED HELP

E|----------------------------------------|
B|--------------------3-3-3-3-------------|
G|--4-4-X-2-----------2-2-2-2---11/9/7----|
D|--4-4-X----5-5-X-4--0-0-0-0---X--X-X----|
A|--2-2-X----5-5-X--------------9b/7/5----|
D|--2-2-X----5-5-X------------------------|
    I THINK I NEED HELP 

E|----------------------------------------|
B|--------------------3-3-3-3-------------|
G|--4-4-X-2-----------2-2-2-2---11/9/7----|
D|--4-4-X----5-5-X-4--0-0-0-0---X--X-X----|
A|--2-2-X----5-5-X--------------9b/7/5----|
D|--2-2-X----5-5-X------------------------|
    I THINK I NEED HELP  

(Outro)
E|----------------------------------------|
B|--------------------3-3-3-3-------------|
G|--4-4-X-2-----------2-2-2-2---11/9/7----|
D|--4-4-X----5-5-X-4--0-0-0-0---X--X-X----|
A|--2-2-X----5-5-X--------------9b/7/5----|
D|--2-2-X----5-5-X------------------------|

E|----------------------------------------|
B|--------------------3-3-3-3-------------|
G|--4-4-X-2-----------2-2-2-2---11/9/7----|
D|--4-4-X----5-5-X-4--0-0-0-0---X--X-X----|
A|--2-2-X----5-5-X--------------9b/7/5----|
D|--2-2-X----5-5-X------------------------|

*******************************************

| br - bend release
| ~  - vibrato
| /  - slide
| X  - dead note

*******************************************
Suggest correction
Creating personal tab
Creating personal tab
You can edit any tab online and save it as your Personal.

You can edit, replace or remove any tab part or add personal notes – all changes will be seen only by you.

Personal tabs can be accessed anytime from any device, even offline.
Learn more »
comments
print report bad tab
1 comment total.
0 reply
Gressi 143 Jul 29, 2017 11:58 AM

first of all: thank you for uploading. really good one.
playing the D chord like this is a little inconvenient imo. try playing the power chord instead, same sound, better fret orientation.

guest
You may want to rate the tab now too:
select rating
Wanna post a correction for this tab? Suggest correction