Oops, an error
Loading. Please wait.

Help tab

version 2
version 2

Whole song

5,620 views 180 this week
no commentswrite comment
1 2 3 4 5
x 10
add to favorites
×
Save as Personal and add changes to this tab that will be seen only by you. Learn more ›
×
You can save this tab as Personal to edit and correct it or add notes. All changes will be seen only by you. Learn more »
launch autoscroll
font size
0
reset
how to read this tab
guitar tuner
edit
Autoscroll
slow
fast
+/-
esc
set tempo
stop
[Intro] 
(Riff 1)
(Clean) (x2) 
e|---------------------------------------------------------------------------|
B|---------------------------------------------------------------------------|
G|------14-14------11-11---11--11--11b-9-7-----------------------------------|
D|-9-9--x--x--5-5--x--x----x---x---x---x-x-----------------------------------|
A|-9-9--12-12-5-5--9--9----9---9---9b--7-5-----------------------------------|
E|-9-9--------5-5------------------------------------------------------------|
PM      *          *          

[Intro 2] 
(Riff 2)
(Dist x2)
e|---------------------------------------------------------------------------|
B|---------------------------------------------------------------------------|
G|------14-14------11-11---11--11--11b-9-7-----------------------------------|
D|-9-9--x--x--5-5--x--x----x---x---x---x-x-----------------------------------|
A|-9-9--12-12-5-5--9--9----9---9---9b--7-5-----------------------------------|
E|-9-9--------5-5------------------------------------------------------------|
PM      *          *          

[Verse 1]
(Riff 1) (x2)
e|---------------------------------------------------------------------------|
B|---------------------------------------------------------------------------|
G|------14-14------11-11---11--11--11b-9-7-----------------------------------|
D|-9-9--x--x--5-5--x--x----x---x---x---x-x-----------------------------------|
A|-9-9--12-12-5-5--9--9----9---9---9b--7-5-----------------------------------|
E|-9-9--------5-5------------------------------------------------------------|
PM      *          *          
[Pre-Chorus 1]
(Dist)
e|---------------------------------------------------------------------------------|
B|---------------------------------------------------------------------------------|
G|-7-7-7-7-7-7-7-7-9-9-9-9-9-9-9-9-11-11-11-11-11-11-11-11-11-11-11-11-11-11-11-11-|
D|-x-x-x-x-x-x-x-x-x-x-x-x-x-x-x-x-x--x--x--x--x--x--x--x--x--x--x--x--x--x--x--x--|
A|-5-5-5-5-5-5-5-5-7-7-7-7-7-7-7-7-9--9--9--9--9--9--9--9--9--9--9--9--9--9--9--9--|
E|---------------------------------------------------------------------------------|

[Chorus 1]
e|---------------------------------------------------------------------------|
B|---------------------------------------------------------------------------|
G|----------------------------------------------11b-9-7----------------------|
D|-9-9-9-9-9-9-x--5-5-5-5-5-5-x--0-0-0-0-0-0-x--x---x-x----------------------|
A|-9-9-9-9-9-9-x--5-5-5-5-5-5-x--0-0-0-0-0-0-x--9b--7-5----------------------|
E|-9-9-9-9-9-9-x--5-5-5-5-5-5-x--0-0-0-0-0-0-x-------------------------------|

e|---------------------------------------------------------------------------|
B|---------------------------------------------------------------------------|
G|---------------------------------------------------------------------------|
D|-9-9-9-9-9-9-x--5-5-5-5-5-5-x--0-0-0-0-0-0-x--7-7-7-7-7-7-7-7--------------|
A|-9-9-9-9-9-9-x--5-5-5-5-5-5-x--0-0-0-0-0-0-x--4-4-4-4-4-4-4-4--------------|
E|-9-9-9-9-9-9-x--5-5-5-5-5-5-x--0-0-0-0-0-0-x-------------------------------|

e|---------------------------------------------------------------------------|
B|---------------------------------------------------------------------------|
G|---------------------------------------------------------------------------|
D|-9-9-9-9-9-9-9-9-5-5-5-5-5-5-5-5-5-0-0-0-0-0-0-0-0-------------------------|
A|-9-9-9-9-9-9-9-9-5-5-5-5-5-5-5-5-5-0-0-0-0-0-0-0-0-------------------------|
E|-9-9-9-9-9-9-9-9-5-5-5-5-5-5-5-5-5-0-0-0-0-0-0-0-0-12-12-12-12-12-12-12-12-|

e|---------------------------------------------------------------------------|
B|---------------------------------------------------------------------------|
G|---------------------------------------------------------------------------|
D|-9-9-9-9-9-9-9-9-5-5-5-5-5-5-5-0-0-0-0-0-0-0-7-7-7-7-7-7-7-7---------------|
A|-9-9-9-9-9-9-9-9-5-5-5-5-5-5-5-0-0-0-0-0-0-0-4-4-4-4-4-4-4-4---------------|
E|-9-9-9-9-9-9-9-9-5-5-5-5-5-5-5-0-0-0-0-0-0-0-------------------------------|

[Riff 2] (x2)
e|---------------------------------------------------------------------------|
B|---------------------------------------------------------------------------|
G|------14-14------11-11---11--11--11b-9-7-----------------------------------|
D|-9-9--x--x--5-5--x--x----x---x---x---x-x-----------------------------------|
A|-9-9--12-12-5-5--9--9----9---9---9b--7-5-----------------------------------|
E|-9-9--------5-5------------------------------------------------------------|
PM      *          *          

[Verse 2]
(Riff 1) (x2)
e|---------------------------------------------------------------------------|
B|---------------------------------------------------------------------------|
G|------14-14------11-11---11--11--11b-9-7-----------------------------------|
D|-9-9--x--x--5-5--x--x----x---x---x---x-x-----------------------------------|
A|-9-9--12-12-5-5--9--9----9---9---9b--7-5-----------------------------------|
E|-9-9--------5-5------------------------------------------------------------|
PM      *          *          

[Pre-Chorus 2]
(Dist)
e|---------------------------------------------------------------------------------|
B|---------------------------------------------------------------------------------|
G|-7-7-7-7-7-7-7-7-9-9-9-9-9-9-9-9-11-11-11-11-11-11-11-11-11-11-11-11-11-11-11-11-|
D|-x-x-x-x-x-x-x-x-x-x-x-x-x-x-x-x-x--x--x--x--x--x--x--x--x--x--x--x--x--x--x--x--|
A|-5-5-5-5-5-5-5-5-7-7-7-7-7-7-7-7-9--9--9--9--9--9--9--9--9--9--9--9--9--9--9--9--|
E|---------------------------------------------------------------------------------|

[Chorus 2]
e|---------------------------------------------------------------------------|
B|---------------------------------------------------------------------------|
G|----------------------------------------------11b-9-7----------------------|
D|-9-9-9-9-9-9-x--5-5-5-5-5-5-x--0-0-0-0-0-0-x--x---x-x----------------------|
A|-9-9-9-9-9-9-x--5-5-5-5-5-5-x--0-0-0-0-0-0-x--9b--7-5----------------------|
E|-9-9-9-9-9-9-x--5-5-5-5-5-5-x--0-0-0-0-0-0-x-------------------------------|

e|---------------------------------------------------------------------------|
B|---------------------------------------------------------------------------|
G|---------------------------------------------------------------------------|
D|-9-9-9-9-9-9-x--5-5-5-5-5-5-x--0-0-0-0-0-0-x--7-7-7-7-7-7-7-7--------------|
A|-9-9-9-9-9-9-x--5-5-5-5-5-5-x--0-0-0-0-0-0-x--4-4-4-4-4-4-4-4--------------|
E|-9-9-9-9-9-9-x--5-5-5-5-5-5-x--0-0-0-0-0-0-x-------------------------------|

e|---------------------------------------------------------------------------|
B|---------------------------------------------------------------------------|
G|---------------------------------------------------------------------------|
D|-9-9-9-9-9-9-9-9-5-5-5-5-5-5-5-5-5-0-0-0-0-0-0-0-0-------------------------|
A|-9-9-9-9-9-9-9-9-5-5-5-5-5-5-5-5-5-0-0-0-0-0-0-0-0-------------------------|
E|-9-9-9-9-9-9-9-9-5-5-5-5-5-5-5-5-5-0-0-0-0-0-0-0-0-12-12-12-12-12-12-12-12-|

e|---------------------------------------------------------------------------|
B|---------------------------------------------------------------------------|
G|---------------------------------------------------------------------------|
D|-9-9-9-9-9-9-9-9-5-5-5-5-5-5-5-0-0-0-0-0-0-0-7-7-7-7-7-7-7-7---------------|
A|-9-9-9-9-9-9-9-9-5-5-5-5-5-5-5-0-0-0-0-0-0-0-4-4-4-4-4-4-4-4---------------|
E|-9-9-9-9-9-9-9-9-5-5-5-5-5-5-5-0-0-0-0-0-0-0-------------------------------|

[Solo] 
e|---------------------------------------------------------------------------|
B|---------------------------------------------------------------------------|
G|-5--/7---/11---11/19-18-18/14--16-11~--9-9~--6~-----9b---------------------|
D|-----------------------------------------------4--7------------------------|
A|---------------------------------------------------------------------------|
E|---------------------------------------------------------------------------|

[Bridge]
(Riff 1) 
(Clean)
e|---------------------------------------------------------------------------|
B|---------------------------------------------------------------------------|
G|------14-14------11-11---11--11--11b-9-7-----------------------------------|
D|-9-9--x--x--5-5--x--x----x---x---x---x-x-----------------------------------|
A|-9-9--12-12-5-5--9--9----9---9---9b--7-5-----------------------------------|
E|-9-9--------5-5------------------------------------------------------------|
PM      *          *          
e|---------------------------------------------------------------------------|
B|---------------------------------------------------------------------------|
G|------14-14------11-11---11------------------------------------------------|
D|-9-9--x--x--5-5--x--x----x-------------------------------------------------|
A|-9-9--12-12-5-5--9--9----9-------------------------------------------------|
E|-9-9--------5-5------------------------------------------------------------|
PM      *          *          

[Chorus 3]
e|---------------------------------------------------------------------------|
B|---------------------------------------------------------------------------|
G|----------------------------------------------11b-9-7----------------------|
D|-9-9-9-9-9-9-x--5-5-5-5-5-5-x--0-0-0-0-0-0-x--x---x-x----------------------|
A|-9-9-9-9-9-9-x--5-5-5-5-5-5-x--0-0-0-0-0-0-x--9b--7-5----------------------|
E|-9-9-9-9-9-9-x--5-5-5-5-5-5-x--0-0-0-0-0-0-x-------------------------------|

e|---------------------------------------------------------------------------|
B|---------------------------------------------------------------------------|
G|---------------------------------------------------------------------------|
D|-9-9-9-9-9-9-x--5-5-5-5-5-5-x--0-0-0-0-0-0-x--7-7-7-7-7-7-7-7--------------|
A|-9-9-9-9-9-9-x--5-5-5-5-5-5-x--0-0-0-0-0-0-x--4-4-4-4-4-4-4-4--------------|
E|-9-9-9-9-9-9-x--5-5-5-5-5-5-x--0-0-0-0-0-0-x-------------------------------|

e|---------------------------------------------------------------------------|
B|---------------------------------------------------------------------------|
G|---------------------------------------------------------------------------|
D|-9-9-9-9-9-9-9-9-5-5-5-5-5-5-5-5-5-0-0-0-0-0-0-0-0-------------------------|
A|-9-9-9-9-9-9-9-9-5-5-5-5-5-5-5-5-5-0-0-0-0-0-0-0-0-------------------------|
E|-9-9-9-9-9-9-9-9-5-5-5-5-5-5-5-5-5-0-0-0-0-0-0-0-0-12-12-12-12-12-12-12-12-|

e|---------------------------------------------------------------------------|
B|---------------------------------------------------------------------------|
G|---------------------------------------------------------------------------|
D|-9-9-9-9-9-9-9-9-5-5-5-5-5-5-5-0-0-0-0-0-0-0-7-7-7-7-7-7-7-7---------------|
A|-9-9-9-9-9-9-9-9-5-5-5-5-5-5-5-0-0-0-0-0-0-0-4-4-4-4-4-4-4-4---------------|
E|-9-9-9-9-9-9-9-9-5-5-5-5-5-5-5-0-0-0-0-0-0-0-------------------------------|

[Outro] 
(Riff 2) 
(x4)
e|---------------------------------------------------------------------------|
B|---------------------------------------------------------------------------|
G|------14-14------11-11---11--11--11b-9-7-----------------------------------|
D|-9-9--x--x--5-5--x--x----x---x---x---x-x-----------------------------------|
A|-9-9--12-12-5-5--9--9----9---9---9b--7-5-----------------------------------|
E|-9-9--------5-5------------------------------------------------------------|
PM      *          *          

************************************

| x  Dead note
| b  Bend
| /  Slide up
| ~  Vibrato
| PM Palm Mute
************************************
Suggest correction
Creating personal tab
Creating personal tab
You can edit any tab online and save it as your Personal.

You can edit, replace or remove any tab part or add personal notes – all changes will be seen only by you.

Personal tabs can be accessed anytime from any device, even offline.
Learn more »
comments
print report bad tab
guest
You may want to rate the tab now too:
select rating
Wanna post a correction for this tab? Suggest correction