Oops, an error
Loading. Please wait.

Last Resort Tab

version 1
1,127,769 views 1,884 this week
145 commentsread comments
1 2 3 4 5
accurate
x 302
add to favorites
launch autoscroll
font size
0
reset
how to read this tab
guitar tuner
Autoscroll
slow
fast
+/-
esc
set tempo
stop
Help us to improve Ultimate-Guitar.com Take our survey!
×
Tuning
D A D G B E
Papa Roach, Last resort 100% correct.
 Tabbed by Gareth Keyes Gazz_182@hotmail.com.

Tuning Dropped D if not this tab will sound b*ll*cks, pardon my French.

[Main riff]
(played through verse 2nd guitarist needed)

E|-|-------------------------|--------------------------------------------------|
B|-|-------------------------|--------------------------------------------------|
G|-|-------------------------|--------------------------------------------------|
D|-|-9-9--7-7--5-5--4-4--7-7-|--------------------------------------------------|
A|-|-7-7--5-5--3-3--2-2--5-5-|--------------------------------------------------|
D|-|-9-9--7-7--5-5--4-4--7-7-|--------------------------------------------------|


  the speedy part though verse that we all love
E|-|----------------------------------------------------------------------------|
B|-|----------------------------------------------------------------------------|
G|-|----------------------------------------------------------------------------|
D|-|-----------9--------------------9--------------------9-------------------9--|
A|-|-7-10-9-10---10-9-10----10-9-10---10-9-10----10-9-10---10-9-10---10-9-10----|
D|-|---------------------12-------------------10-------------------9------------|


E|----------|--------------------------------------------------------------------|
B|----------|--------------------------------------------------------------------|
G|----------|--------------------------------------------------------------------|
D|----------|-----------9--------------------9--------------------9--------------|
A|-10-9-10--|-7-10-9-10---10-9-10----10-9-10---10-9-10----10-9-10---10-9-10------|
D|----------|---------------------12-------------------10------------------------|
            pm ----------------------------------------------------------------|

E|-------------------------------------------------------------------------------|
B|-------------------------------------------------------------------------------|
G|-------------------------------------------------------------------------------|
D|-----------9--------------------9---------------9--------------------9---------|
A|---10-9-10---10-9-10--7-10-9-10---10----10-9-10---10-9-10----10-9-10--10-9-10--|
D|-9-----------------------------------12-------------------10-------------------|
 pm ---------------------------------------------------------------------------|

E|------------------|-----------------------------------------------------------|
B|------------------|-----------------------------------------------------------|
G|------------------|-----------------------------------------------------------|
D|----9999-12121212-|-----------------------------------------------------------|
A|----9999-12121212-|-----------------------------------------------------------|
D|-12-9999-12121212-|-----------------------------------------------------------|


[Chorus]
(only play 1st part on 1st chorus)

E|------------------------------------------------------------------------------|
B|------------------------------------------------------------------------------|
G|----------------------------------------------111111111111111111111111111111--|
D|-14-14-14-14-14-14-14-0-10-10-10-10-10-10-10-0-x-x-x-x-x-x-x-x-x-x-x-x-x-x-x--|
A|-14-14-14-14-14-14-14-0-10-10-10-10-10-10-10-0-9-9-9-9-9-9-9-9-9-9-9-9-9-9-9--|
D|-14-14-14-14-14-14-14-0-10-10-10-10-10-10-10-0-0-0-0-0-0-0-0-0-0-0-0-0-0-0-0--|

E|---|--------------------------------------------------------------------------|
B|---|--------------------------------------------------------------------------|
G|-11|--------------------------------------------------------------------------|
D|-x-|-----------------------------------------------------------------------x2-|
A|-9-|--------------------------------------------------------------------------|
D|-0-|--------------------------------------------------------------------------|

  2nd part
E|--------------------------------------------------------------------------|---|
B|--------------------------------------------------------------------------|---|
G|--------------------------------------------------------------------------|---|
D|-14-14-14-14-14-14-14-0-10-10-10-10-10-10-10-5-5-5-5-5-5-5-5-9-9-9-9-9-9-9|x2-|
A|-14-14-14-14-14-14-14-0-10-10-10-10-10-10-10-5-5-5-5-5-5-5-5-9-9-9-9-9-9-9|---|
D|-14-14-14-14-14-14-14-0-10-10-10-10-10-10-10-5-5-5-5-5-5-5-5-9-9-9-9-9-9-9|---|


  last part of 2nd chorus
E|----------------------------------------------------------------------------------|
B|----------------------------------------------------------------------------------|
G|-------------------7-7-7-7-7-7-7-7---12-12-12-12-12-12-12-12—-11111111111111111---|
D|-9-9-9-9-9-9-9-9---5-5-5-5-5-5-5-5---10-10-10-10-10-10-10-10---9-9-9-9-9-9-9-9x2--|
A|-7-7-7-7-7-7-7-7---5-5-5-5-5-5-5-5---10-10-10-10-10-10-10-10---9-9-9-9-9-9-9-9----|
D|-9-9-9-9-9-9-9-9---5-5-5-5-5-5-5-5---10-10-10-10-10-10-10-10---9-9-9-9-9-9-9-9----|


:: Ultimate Guitar Archive ::
http://www.ultimate-guitar.com
Suggest correction new What's this?
You can suggest a correction to this tab. Community and Mods will review your correction and vote to approve or reject it.
comments
print report bad tab
145 comments total. Showing first comments. show 1 bad comment
+4 reply
Rage 1,498 wrote on January 12 2002, 12:00 am

This tab is nothing close too 100% correct.

+3 reply
Munkie2k 0 wrote on February 21 2002, 12:00 am

sry, but i gotta agree, this tab sux. i tried playing it thru my amp and it is nothing like the chords that Jerry plays.

guest
You may want to rate the tab now too:
select rating
Please do not post tabs as comments. Select "correction" instead!