Oops, an error
Loading. Please wait.
We have an official Last Resort tab made by UG professional guitarists. Check out the tab »
×
22,601 views 15 this week
no commentswrite comment
1 2 3 4 5
x 6
add to favorites
×
Save as Personal and add changes to this tab that will be seen only by you. Learn more ›
×
You can save this tab as Personal to edit and correct it or add notes. All changes will be seen only by you. Learn more »
launch autoscroll
font size
0
reset
guitar tuner
backing track
0:00
0:00
edit
Autoscroll
slow
fast
+/-
esc
set tempo
stop
Last Resort- Papa Roach Bass tab

Intro

G------------------------------------------------------|
D------------------------------------------------------|
A-7-7-----------------------------7-7------------------|
D------12-12---10-10----9-9--12-12---------------------|

G------------------------------------------------------|
D------------------------------------------------------|
A---------------------------------7-7------------------|
D------12-12---10-10----9-9--12-12---------------------|
Just Play this until the chorus

Chorus:
G------------------------------------------------------|
D------------------------------------------------------|
A------------------------------------------------------|
D-14-14-14-14-14-14-14-14-10-10-10-10-10-10-10-10------|

G------------------------------------------------------|
D------------------------------------------------------|
A------------------------------------------------------|
D-0-0-0-0-0-0-0-0-0-0-0-0-0-0-0-0----------------------|repeat chorus


Second Chorus:
G------------------------------------------------------|
D------------------------------------------------------|
A------------------------------------------------------|
D-14-14-14-14-14-14-14-14-10-10-10-10-10-10-10-10------|

G------------------------------------------------------|
D------------------------------------------------------|
A------------------------------------------------------|
D-5-5-5-5-5-5-5-5-9-9-9-9-9-9-9-9----------------------|

Keep on playing second chorus until he's finished "I'M CRYING!" part

Then play the intro after that.  And im pretty sure you can figure out the rest.

I've noticed that the other tab for a 4-string bass is completely wrong, so here is the 
one.

I know that it is played lower because the song is actually played on 5-string bass.

But this is sufficient because its only 4 string so:
I know it's right.  I was following the guitar tab.

            
            
Suggest correction
Creating personal tab
Creating personal tab
You can edit any tab online and save it as your Personal.

You can edit, replace or remove any tab part or add personal notes – all changes will be seen only by you.

Personal tabs can be accessed anytime from any device, even offline.
Learn more »
comments
print report bad tab
guest
Wanna post a correction for this tab? Suggest correction