Oops, an error
Loading. Please wait.

Lifeline bass

version 1
version 1

Whole song

Interactive

11,137 views 12 this week
3 commentsread comments
1 2 3 4 5
x 5
add to favorites
×
Save as Personal and add changes to this tab that will be seen only by you. Learn more ›
×
You can save this tab as Personal to edit and correct it or add notes. All changes will be seen only by you. Learn more »
launch autoscroll
font size
0
reset
guitar tuner
backing track
0:00
0:00
edit
Autoscroll
slow
fast
+/-
esc
set tempo
stop
Author
Difficulty
++++++++++++++++++++++++++++++++++++++++++++++++++++++++++++++++++++++++++++
++++++++++++++++++++++++++++++++++++LIFELINE++++++++++++++++++++++++++++++++
++++++++++++++++++++++++++++++++++++++++++++++++++++++++++++++++++++++++++++

standard tuning

$$$$$$$$$$$$$$$$$$$$$$$$$$$$$$$$$$$$$$$$$$$$$$$$$$$$$$$$$$$$$$$$$$$$$$$$$$$$
$$$$$$$$$$$$$$$$$$$$$$$$$$$$$$$$$$$INTRO$$$$$$$$$$$$$$$$$$$$$$$$$$$$$$$$$$$$
$$$$$$$$$$$$$$$$$$$$$$$$$$$$$$$$$$$$$$$$$$$$$$$$$$$$$$$$$$$$$$$$$$$$$$$$$$$$
\-----------------------------------------------------------------\
\-----------------------------------------------------------------\
\-5-5-5-5-5-5-5-5-5-5-5-5-5-5-5-5---------------------------------\
\---------------------------------3-3-3-3-3-3-3-3-3-3-3-3-3-3-3-3-\

\------------------------------------------------------------------\
\------------------------------------------------------------------\
\---------------------------------5-5-5-5-5-5-5-5-5-5-5-5-5-5-5-5--\
\-0-0-0-0-0-0-0-0-5-5-5-5-5-5-5-5----------------------------------\

****************************************************************************
**********************************VERSE*************************************
****************************************************************************

\----------------------------------\
\----------------------------------\
\--5-5-5-5-5-5-5-5-5-5-5-5-5-5-5-5-\
\----------------------------------\

(those are tens)
\------------------------------------------------------------------\
\------------------------------------------------------------------\
\-10-10-10-10-10-10-10-10-10-10-10-10-10-10-10-10-10---------------\
\------------------------------------------------------------------\

\----------------------------------\
\----------------------------------\
\-7-7-7-7-7-7-7-7------------------\
\----------------------------------\

(those are twelves)
\------------------------------------------------------------------\
\------------------------------------------------------------------\
\-12-12-12-12-12-12-12-12------------------------------------------\
\------------------------------------------------------------------\

\----------------------------------\
\----------------------------------\
\-5-5-5-5-5-5-5-5-5-5-5-5-5-5-5-5--\
\----------------------------------\

\----------------------------------\
\----------------------------------\
\-5-5-5-5-5-5-5-5-5-5-5-5-5-5-5-5--\
\----------------------------------\

(those are still tens)
\------------------------------------------------------------------\
\------------------------------------------------------------------\
\-10-10-10-10-10-10-10-10-10-10-10-10-10-10-10-10-10---------------\
\------------------------------------------------------------------\

\----------------------------------\
\----------------------------------\
\-7-7-7-7-7-7-7-7------------------\
\----------------------------------\

(those are still twelves)
\------------------------------------------------------------------\
\------------------------------------------------------------------\
\-12-12-12-12-12-12-12-12------------------------------------------\
\------------------------------------------------------------------\

\----------------------------------\
\----------------------------------\
\-5-5-5-5-5-5-5-5-5-5-5-5-5-5-5-5--\
\----------------------------------\

!!!!!!!!!!!!!!!!!!!!!!!!!!!!!!!!!!!!!!!!!!!!!!!!!!!!!!!!!!!!!!!!!!!!!!!!!!!!
!!!!!!!!!!!!!!!!!!!!!!!!!!!!!!!!!!!!CHORUS!!!!!!!!!!!!!!!!!!!!!!!!!!!!!!!!!!
!!!!!!!!!!!!!!!!!!!!!!!!!!!!!!!!!!!!!!!!!!!!!!!!!!!!!!!!!!!!!!!!!!!!!!!!!!!!

(its the same thing just speed up)
\----------------------------------\
\----------------------------------\
\-55555555555555555555555555555555-\
\----------------------------------\

\------------------------------------------------------------------\
\------------------------------------------------------------------\
\-1010101010101010101010101010101010101010101010101010101010101010-\
\------------------------------------------------------------------\

\----------------------------------\
\----------------------------------\
\-7777777777777777-----------------\
\----------------------------------\

\----------------------------------\
\----------------------------------\
\-12121212121212121212121212121212-\
\----------------------------------\

****************************************************************************
**********************************VERSE*************************************
****************************************************************************

(THEN SLOW BACK DOWN)

\----------------------------------\
\----------------------------------\
\--5-5-5-5-5-5-5-5-5-5-5-5-5-5-5-5-\
\----------------------------------\

(those are tens)
\------------------------------------------------------------------\
\------------------------------------------------------------------\
\-10-10-10-10-10-10-10-10-10-10-10-10-10-10-10-10-10---------------\
\------------------------------------------------------------------\

\----------------------------------\
\----------------------------------\
\-7-7-7-7-7-7-7-7------------------\
\----------------------------------\

(that is a twelve)
\---\
\---\
\-12\
\---\

\----------------------------------\
\----------------------------------\
\5555555555555555555555555555555---\
\----------------------------------\


!!!!!!!!!!!!!!!!!!!!!!!!!!!!!!!!!!!!!!!!!!!!!!!!!!!!!!!!!!!!!!!!!!!!!!!!!!!!
!!!!!!!!!!!!!!!!!!!!!!!!!!!!!!!!!!!!CHORUS!!!!!!!!!!!!!!!!!!!!!!!!!!!!!!!!!!
!!!!!!!!!!!!!!!!!!!!!!!!!!!!!!!!!!!!!!!!!!!!!!!!!!!!!!!!!!!!!!!!!!!!!!!!!!!!


\----------------------------------\
\----------------------------------\
\-55555555555555555555555555555555-\
\----------------------------------\

\------------------------------------------------------------------\
\------------------------------------------------------------------\
\-1010101010101010101010101010101010101010101010101010101010101010-\
\------------------------------------------------------------------\

\----------------------------------\
\----------------------------------\
\-7777777777777777-----------------\
\----------------------------------\

\----------------------------------\
\----------------------------------\
\-12121212121212121212121212121212-\
\----------------------------------\

\----------------------------------\
\----------------------------------\
\-55555555555555555555555555555555-\
\----------------------------------\

\------------------------------------------------------------------\
\------------------------------------------------------------------\
\-1010101010101010101010101010101010101010101010101010101010101010-\
\------------------------------------------------------------------\

\----------------------------------\
\----------------------------------\
\-7777777777777777-----------------\
\----------------------------------\

\----------------------------------\
\----------------------------------\
\-12121212121212121212121212121212-\
\----------------------------------\
@@@@@@@@@@@@@@@@@@@@@@@@@@@@@@@@@@@@@@@@@@@@@@@@@@@@@@@@@@@@@@@@@@@@@@@@@@@@
@@@@@@@@@@@@@@@@@@@@@@@@@@@@@@@@@@BRIDGE@@@@@@@@@@@@@@@@@@@@@@@@@@@@@@@@@@@@
@@@@@@@@@@@@@@@@@@@@@@@@@@@@@@@@@@@@@@@@@@@@@@@@@@@@@@@@@@@@@@@@@@@@@@@@@@@@
\-------------------------------------------------------------------------\
\-------------------------------------------------------------------------\
\-22222222222222220000000000000000----------------------------------------\
\---------------------------------3333333333333333333333333333333333------\

\-------------------------------------------------------------------------\
\-------------------------------------------------------------------------\
\-22222222222222220000000000000000----------------------------------------\
\---------------------------------3333333333333333333333333333333333------\

\-------------------------------------------------------------------------\
\-------------------------------------------------------------------------\
\-5~~~~~~~~~~~~----------------------------------5~~~~~~~~~~~~~~~~~~~~~~~~\
\--------------3~~~~~~~~~~~~0~~~~~~~~~~5~~~~~~~~~-------------------------\
&&&&&&&&&&&&&&&&&&&&&&&&&&&&&&&&&&&&&&&&&&&&&&&&&&&&&&&&&&&&&&&&&&&&&&&&&&&&
&&&&&&&&&&&&&&&&&&&&&&&&&&&&&&&FINAL CHORUS&&&&&&&&&&&&&&&&&&&&&&&&&&&&&&&&&
&&&&&&&&&&&&&&&&&&&&&&&&&&&&&&&&&&&&&&&&&&&&&&&&&&&&&&&&&&&&&&&&&&&&&&&&&&&&

\-------------------------------------------------------------------------\
\-------------------------------------------------------------------------\
\-------------------------------------------------------------------------\
\-3333333333333333333333333333333300000000000000005555555555555555--------\

\----------------------------------------\
\----------------------------------------\
\-55555555555555555555555555555555xxxxxxx\
\---------------------------------xxxxxxx\

\-------------------------------------------------------------------------\
\-------------------------------------------------------------------------\
\-55555555555555555555555555555555----------------------------------------\
\---------------------------------77777777777777777777777777777777--------\

\-------------------------------------------------------------------------\
\-------------------------------------------------------------------------\
\---------------------------------55555555555555555555555555555555--------\
\-00000000000000003333333333333333----------------------------------------\

\-------------------------------------------------------------------------\
\-------------------------------------------------------------------------\
\-5~~~~~~~~~~~~~~~~~~~~~~~~~~~~~~~~~~~~~~~~~~~~~~~~~5~~~~~~~~~~~~~~~~~~~~~\
\--------------3~~~~~~~~~~~~~~~0~~~~~~~~~~5~~~~~~~~~~~~~~~~~~~~~~~~~~~~~~~\

            
            
Suggest correction
Creating personal tab
Creating personal tab
You can edit any tab online and save it as your Personal.

You can edit, replace or remove any tab part or add personal notes – all changes will be seen only by you.

Personal tabs can be accessed anytime from any device, even offline.
Learn more »
comments
print report bad tab
3 comments total.
0 reply
warlock roxs! 10 Dec 30, 2009 03:55 AM

you think were idiots or somthing we know damn fine what fuking number it is
nob end

0 reply
Bobby6780 10 Mar 11, 2010 12:54 PM

This is one of the worse tabs I have ever seen! Better work on the ear kiddo.

0 reply
frenchtoast218 177 Sep 12, 2010 06:52 AM

if you dont like the tab then dont use this one..

guest
You may want to rate the tab now too:
select rating
Wanna post a correction for this tab? Suggest correction