Oops, an error
Loading. Please wait.

Lifeline bass

version 2
version 2

Whole song

Interactive

7,585 views 36 this week
no commentswrite comment
1 2 3 4 5
x 6
add to favorites
×
Save as Personal and add changes to this tab that will be seen only by you. Learn more ›
×
You can save this tab as Personal to edit and correct it or add notes. All changes will be seen only by you. Learn more »
launch autoscroll
font size
0
reset
guitar tuner
backing track
0:00
0:00
edit
Autoscroll
slow
fast
+/-
esc
set tempo
stop
Band: Papa Roach
Song: Lifeline
Tabbed for: Bass
Tuning: Drop D (DADG)

I saw there was some tabs for this song, but they didn't fit 100% with the song, so I 
to fill inn some more of it, but neighter this one ain't 100%, but it's better! I know 
is some stuff in chorus 2 I haven't filled in yet, but you'll figure it out!
Listen to the song to get the right timing for these tabs!
Enjoy this great song!
Please rate! =)

Papa Roach - Lifeline (Bass)
Tuning: Drop D (DAGD)

Intro:
G|---------|--------|--------|--------|--------|
D|---------|--------|--------|--------|--------|
A|---------|--------|--------|--------|--------|
D|--0---0--|--5--5--|--2--2--|--7--7--|--0--0--|

Verse 1:
G|---------------------------------|---------------------------------|
D|---------------------------------|---------------------------------|
A|-5-5-5-5-5-5-5-5-5-5-5-5-5-5-5-5-|---------------------------------|
D|---------------------------------|-5-5-5-5-5-5-5-5-5-5-5-5-5-5-5-5-|

G|---------------------------------|---------------------------------|
D|---------------------------------|---------------------------------|
A|---------------------------------|-5-5-5-5-5-5-5-5-5-5-4-4-2-2-0-0-|
D|-2-2-2-2-2-2-2-2-7-7-7-7-7-7-7-7-|---------------------------------|

G|---------------------------------|---------------------------------|
D|---------------------------------|---------------------------------|
A|-5-5-5-5-5-5-5-5-5-5-5-5-5-5-5-7-|---------------------------------|
D|---------------------------------|-5-5-5-5-5-5-5-5-5-5-5-5-5-5-5-4-|

G|---------------------------------|---------------------------------|
D|---------------------------------|-------------------------4-4-5-5-|
A|---------------------------------|-5-5-5-5-5-5-5-5-5-5-7-7---------|
D|-2-2-2-2-2-2-2-4-7-7-7-7-7-7-7-7-|---------------------------------|

Chorus:
G|---------------------------------|---------------------------------|
D|---------------------------------|---------------------------------|
A|-5-5-5-5-5-5-5-5-5-5-5-5-5-5-5-5-|---------------------------------|
D|---------------------------------|-5-5-5-5-5-5-5-5-5-5-5-5-5-5-5-5-|

G|---------------------------------|---------------------------------|
D|---------------------------------|-----------------7-7-5-5-4-4-----|
A|---------------------------------|-5-5-5-5-5-5-5-5-------------7-7-|
D|-2-2-2-2-2-2-2-2-7-7-7-7-7-7-7-7-|---------------------------------|

Verse 2:
G|---------------------------------|---------------------------------|
D|---------------------------------|---------------------------------|
A|-5-5-5-5-5-5-5-5-5-5-5-5-5-5-5-7-|---------------------------------|
D|---------------------------------|-5-5-5-5-5-5-5-5-5-5-5-5-5-5-5-4-|

G|----------------------|------------------------------------------|
D|----------------------|----------------------------------4-4-5-5-|
A|----------------------|-5--5-5-0-5--5-5--0-5-5-5-5-5-7-7---------|
D|-2-2-2-2-2-2-2-4-7r---|------------------------------------------|

Chorus:
G|---------------------------------|---------------------------------|
D|---------------------------------|---------------------------------|
A|-5-5-5-5-5-5-5-5-5-5-5-5-5-5-5-5-|---------------------------------|
D|---------------------------------|-5-5-5-5-5-5-5-5-5-5-5-5-5-5-5-5-|

G|---------------------------------|---------------------------------|
D|---------------------------------|---------------------------------|
A|---------------------------------|-5-5-5-5-5-5-5-5-5-5-5-5-5-5-5-5-|
D|-2-2-2-2-2-2-2-2-7-7-7-7-7-7-7-7-|---------------------------------|

G|---------------------------------|---------------------------------|
D|---------------------------------|---------------------------------|
A|-5-5-5-5-5-5-5-5-5-5-5-5-5-5-5-7-|---------------------------------|
D|---------------------------------|-5-5-5-5-5-5-5-5-5-5-5-5-5-5-5-4-|

G|---------------------------------|---------------------------------|
D|---------------------------------|---------------------------------|
A|---------------------------------|-5-5-5-5-5-5-5-5-5-5-4-4-2-2-0-0-|
D|-2-2-2-2-2-2-2-4-7-7-7-7-7-7-7-7-|---------------------------------|

Bridge:
D|--------------------|-------------------|-----------|--------------|
G|--------------------|-------------------|-----------|--------------|
A|--------------------|-------------------|-----------|-10-9-7-7-9-5-|
D|-9-9-9-9-9-9-9-9-11-|-7-7-7-7-7-7-7-7-9-|-5--5--5-5-|--------------|

D|--------------------|-------------------|-----------|-------------|
G|--------------------|-------------------|-----------|-----5-4-----|
A|--------------------|-------------------|-----------|-5/7-----7-5-|
D|-9-9-9-9-9-9-9-9-11-|-7-7-7-7-7-7-7-7-9-|-5--5--5-5-|-------------|

D|------|------------------------------|
G|------|------------------------------|
A|--5r--|----5/7-10-10/9-7-7/9-----5r/-|
D|------|-5--------------------7-7-----|

Chorus:
D|------|--------------------------------|--------------------------------|
G|------|--------------------------------|--------------------------------|
A|--5/--|--------------------------------|--------------------------------|
D|------|5-5-5-5-5-5-5-5-5-5-5-5-5-5-5-5-|2-2-2-2-2-2-2-2-7-7-7-7-7-7-7-7-|

D|---------------------------------|
G|---------------------------------|
A|-5-5-5-5-5-5-5-5-5-5-5-5-5-5-5-5-|
D|---------------------------------|

D|---------------------------------|---------------------------------|
G|---------------------------------|---------------------------------|
A|-5-5-5-0-5-5-5-0-5-5-5-0-5-5-5-0-|---------------------------------|
D|---------------------------------|-9-9-9-7-9-9-9-7-9-9-9-7-9-9-9-7-|

D|---------------------------------|---------------------------------|
G|---------------------------------|-------------------------4-4-5-5-|
A|---------------------------------|-5-5-5-5-5-5-5-5-5-5-7-7---------|
D|-2-2-2-2-2-2-2-4-5-5-5-5-5-5-5-5-|---------------------------------|

Outro:
G|-----|-----|-----|-----|-----|-----|
D|-----|-----|-----|-----|-----|-----|
A|--5--|-----|-----|-----|-----|--5--|
D|-----|--5--|--2--|--7--|--0--|--0--|

Thomas Lundesgaard, Norway

            
            
Suggest correction
Creating personal tab
Creating personal tab
You can edit any tab online and save it as your Personal.

You can edit, replace or remove any tab part or add personal notes – all changes will be seen only by you.

Personal tabs can be accessed anytime from any device, even offline.
Learn more »
comments
print report bad tab
guest
You may want to rate the tab now too:
select rating
Wanna post a correction for this tab? Suggest correction