Oops, an error
Loading. Please wait.

My Heart Is A Fist tab

version 1
version 1

Whole song

Interactive

10,514 views 9 this week
1 commentread comment
1 2 3 4 5
x 10
add to favorites
×
Save as Personal and add changes to this tab that will be seen only by you. Learn more ›
×
You can save this tab as Personal to edit and correct it or add notes. All changes will be seen only by you. Learn more »
launch autoscroll
font size
0
reset
how to read this tab
guitar tuner
edit
Autoscroll
slow
fast
+/-
esc
set tempo
stop
Author
Difficulty
Papa Roach - My Heart Is A Fist
Tuning: DADGBE

Pre-Chorus - x1
-----------------|-----------------|-----------------|-------------|
----------8---11-|----------8---11-|----------8---11-|-10----8-----|
-7---10----------|-7---10----------|-7---10----------|----------10-|
-----------------|-----------------|-----------------|-------------|
-----------------|-----------------|-----------------|-------------|
-----------------|-----------------|-----------------|-------------|

Chorus - x1 *play each chord 8 times
-------------------------------|
-------------------------------|
-------------------------------|
-5---3---1---8---5---3---1---3-|
-5---3---1---8---5---3---1---3-|
-5---3---1---8---5---3---1---3-|

Post-Chorus - x1
-------------------------|
---------------15-----18-|
-14-----17---------------|
-------------------------|
-------------------------|
-------------------------|

Verse - x4 *PM
-----------|
-----------|
-----------|
-----------|
-----------|
-0-0-0-0-0-|

Verse - x2 *Fast Strum
-10--13-12-|-10--6-8-|
-x----x-x--|-x---x-x-|
-7---10-9--|-7---3-5-|
-----------|---------|
-----------|---------|
-----------|---------|

Pre-Chorus - x1
-----------------|-----------------|-----------------|-------------|
----------8---11-|----------8---11-|----------8---11-|-10---8------|
-7---10----------|-7---10----------|-7---10----------|----------10-|
-----------------|-----------------|-----------------|-------------|
-----------------|-----------------|-----------------|-------------|
-----------------|-----------------|-----------------|-------------|

Chorus - x2 *play each chord 8 times
---------------|---------------|
---------------|---------------|
---------------|---------------|
-5---3---1---8-|-5---3---1---3-|
-5---3---1---8-|-5---3---1---3-|
-5---3---1---8-|-5---3---1---3-|

End - x4 *let each chord ring
-----------------------------|
-----------------------------|
-----------------------------|
-5---5---3---5---1---1---8-7-|
-5---5---3---5---1---1---8-7-|
-5---5---3---5---1---1---8-7-|

End on
---
---
---
-5-
-5-
-5-

Great song from a fantastic album! Viva La Cucaracha!!!

Any comments and suggestions welcome:
- anarchados@another.com

            
            
Suggest correction
Creating personal tab
Creating personal tab
You can edit any tab online and save it as your Personal.

You can edit, replace or remove any tab part or add personal notes – all changes will be seen only by you.

Personal tabs can be accessed anytime from any device, even offline.
Learn more »
comments
print report bad tab
1 comment total.
0 reply
FloSoft 10 Jul 01, 2009 04:59 AM

Hi,
whats about the second guitar in the 2nd chorus part?
it sounds like that (only the end is not 100% i think)

Q E E E E E E E E E E E E Q
E||--------------------------------|--------------------------------|
B||--------------------------------|--------------------------------|
G||--12----15--12--14--15--14--12--|---L--12--15--12--14--15--14----|
D||--------------------------------|--------------------------------|
A||--------------------------------|--------------------------------|
D||--------------------------------|--------------------------------|

Q E E E E E E E E E E E E Q
--------------------------------|--------------------------------|
--------------------------------|--------------------------------|
--------15------14--15--14------|----------15------14--15--14----|
--15--------15--------------15--|---L--15------15----------------|
--------------------------------|--------------------------------|
--------------------------------|--------------------------------|

Q E E E E E E E E E E E E Q
--------------------------------|--------------------------------|
--------------------------------|--------------------------------|
--------15------14--15--14------|----------15------14--15--14----|
--13--------13--------------13--|---L--13------13----------------|
--------------------------------|--------------------------------|
--------------------------------|--------------------------------|

Q Q Q E E E Q E E E E E 4x
----------------------------|---------------------------------||
----------------------------|----------------13---------------||
--------15----14----12--15--|---L--14----12------15--14--15--*||
--15------------------------|--------------------------------*||
----------------------------|---------------------------------||
----------------------------|---------------------------------||

Duration Legend
---------------
W - whole
H - half
Q - quarter
E - 8th
S - 16th
T - 32nd
X - 64th

guest
You may want to rate the tab now too:
select rating
Wanna post a correction for this tab? Suggest correction