Oops, an error
Loading. Please wait.
We have Chord Pro version of My Medication.
It's the closest thing you can get to the original song and it has interactive parts. Check out the tab »
×

My Medication tab

version 1
version 1

Whole song

  • This tab is based off the sudio version by Papa Roach song called My Medication.

Interactive

670 views 27 this week
1 commentread comment
1 2 3 4 5
2 more votes to show rating
add to favorites
×
Save as Personal and add changes to this tab that will be seen only by you. Learn more ›
×
You can save this tab as Personal to edit and correct it or add notes. All changes will be seen only by you. Learn more »
launch autoscroll
font size
0
reset
how to read this tab
guitar tuner
edit
Autoscroll
slow
fast
+/-
esc
set tempo
stop
About this tab version
This tab is based off the sudio version by Papa Roach song called My Medication. Was this info helpful? Yes No
Tuning - Drop C#

[Intro]

D#|-----------------------------------|-----------------------------------|
A#|-----------------------------------|-----------------------------------|
F#|-----------------------------------|-----------------------------------|
C#|---0-0-0-0-3-3-3-3-8-8-8-8-5-5-5-5-|-0-0-0-0-3-3-3-3-8-8-8-8-1-1-1-1---| (x2)
G#|---0-0-0-0-3-3-3-3-8-8-8-8-5-5-5-5-|-0-0-0-0-3-3-3-3-8-8-8-8-1-1-1-1---|
C#|---0-0-0-0-3-3-3-3-8-8-8-8-5-5-5-5-|-0-0-0-0-3-3-3-3-8-8-8-8-1-1-1-1---|

D#|-------------------------------|-----------------------------------|
A#|-------------------------------|-----------------------------------|
F#|-------------------------------|-----------------------------------|
C#|--------------0--0-0--0-0--0-0-|-3-3-3-3-3-3-3-3-8-8-8-8-8-8-8-8---|
G#|---x-x-x-x----0--0-0--0-0--0-0-|-3-3-3-3-3-3-3-3-8-8-8-8-8-8-8-8---|
C#|---x-x-x-x-12-0--0-0--0-0--0-0-|-3-3-3-3-3-3-3-3-8-8-8-8-8-8-8-8---|

D#|-----------------------|-----------------------|
A#|-----------------------|-----------------------|
F#|-----------------------|-----------------------|
C#|------0--0-0--0-0--0-0-|-5-5-5-5-5-5-5-5-1-1---|
G#|------0--0-0--0-0--0-0-|-5-5-5-5-5-5-5-5-1-1---|
C#|---12-0--0-0--0-0--0-0-|-5-5-5-5-5-5-5-5-1-1---|

[Verse]

D#|-------------|-----------|-----------------|
A#|-------------|-----------|-----------------|
F#|--------10---|------10---|-----------------|
C#|---7-7-----7-|--7-7----7-|------7-----10---| (x2)
G#|-------------|-----------|-----------------|
C#|-------------|-----------|--5-5---8-8------|

D#|------------------|-------------------|
A#|------------------|-------------------|
F#|------2-------5---|-----7-------3-----|
C#|----3---3---3---3-|---5---5---1---3---| (x2)
G#|------------------|-------------------|
C#|---0------3-------|-5-------1---------|

[Chorus]

D#|-----------------------|-----------------------------------|
A#|-----------------------|-----------------------------------|
F#|-----------------------|-----------------------------------|
C#|---12-0--0-0--0-0--0-0-|-3-3-3-3-3-3-3-3-8-8-8-8-8-8-8-8---|
G#|---12-0--0-0--0-0--0-0-|-3-3-3-3-3-3-3-3-8-8-8-8-8-8-8-8---|
C#|---12-0--0-0--0-0--0-0-|-3-3-3-3-3-3-3-3-8-8-8-8-8-8-8-8---|

D#|-----------------------|-----------------------|
A#|-----------------------|-----------------------|
F#|-----------------------|-----------------------|
C#|---12-0--0-0--0-0--0-0-|-5-5-5-5-5-5-5-5-1-1---|
G#|---12-0--0-0--0-0--0-0-|-5-5-5-5-5-5-5-5-1-1---|
C#|---12-0--0-0--0-0--0-0-|-5-5-5-5-5-5-5-5-1-1---|

D#|-----------------------|-----------------------------------|
A#|-----------------------|-----------------------------------|
F#|-----------------------|-----------------------------------|
C#|---12-0--0-0--0-0--0-0-|-3-3-3-3-3-3-3-3-8-8-8-8-8-8-8-8---|
G#|---12-0--0-0--0-0--0-0-|-3-3-3-3-3-3-3-3-8-8-8-8-8-8-8-8---|
C#|---12-0--0-0--0-0--0-0-|-3-3-3-3-3-3-3-3-8-8-8-8-8-8-8-8---|

D#|-----------------------|------------------------|
A#|-----------------------|------------------------|
F#|-----------------------|------------------------|
C#|---12-0--0-0--0-0--0-0-|-5-5-5-5-5-5-5-5-1------|
G#|---12-0--0-0--0-0--0-0-|-5-5-5-5-5-5-5-5-1-4~---|
C#|---12-0--0-0--0-0--0-0-|-5-5-5-5-5-5-5-5-1------|

[Verse]

D#|-------------|-----------|-----------------|
A#|-------------|-----------|-----------------|
F#|--------10---|------10---|-----------------|
C#|---7-7-----7-|--7-7----7-|------7-----10---| (x2)
G#|-------------|-----------|-----------------|
C#|-------------|-----------|--5-5---8-8------|

D#|------------------|-------------------|
A#|------------------|-------------------|
F#|------2-------5---|-----7-------3-----|
C#|----3---3---3---3-|---5---5---1---3---| (x2)
G#|------------------|-------------------|
C#|---0------3-------|-5-------1---------|

[Chorus]

D#|-----------------------|-----------------------------------|
A#|-----------------------|-----------------------------------|
F#|-----------------------|-----------------------------------|
C#|---12-0--0-0--0-0--0-0-|-3-3-3-3-3-3-3-3-8-8-8-8-8-8-8-8---|
G#|---12-0--0-0--0-0--0-0-|-3-3-3-3-3-3-3-3-8-8-8-8-8-8-8-8---|
C#|---12-0--0-0--0-0--0-0-|-3-3-3-3-3-3-3-3-8-8-8-8-8-8-8-8---|

D#|-----------------------|-----------------------|
A#|-----------------------|-----------------------|
F#|-----------------------|-----------------------|
C#|---12-0--0-0--0-0--0-0-|-5-5-5-5-5-5-5-5-1-1---|
G#|---12-0--0-0--0-0--0-0-|-5-5-5-5-5-5-5-5-1-1---|
C#|---12-0--0-0--0-0--0-0-|-5-5-5-5-5-5-5-5-1-1---|

D#|-----------------------|-----------------------------------|
A#|-----------------------|-----------------------------------|
F#|-----------------------|-----------------------------------|
C#|---12-0--0-0--0-0--0-0-|-3-3-3-3-3-3-3-3-8-8-8-8-8-8-8-8---|
G#|---12-0--0-0--0-0--0-0-|-3-3-3-3-3-3-3-3-8-8-8-8-8-8-8-8---|
C#|---12-0--0-0--0-0--0-0-|-3-3-3-3-3-3-3-3-8-8-8-8-8-8-8-8---|

D#|-----------------------|------------------------|
A#|-----------------------|------------------------|
F#|-----------------------|------------------------|
C#|---12-0--0-0--0-0--0-0-|-5-5-5-5-5-5-5-5-1------|
G#|---12-0--0-0--0-0--0-0-|-5-5-5-5-5-5-5-5-1-4~---|
C#|---12-0--0-0--0-0--0-0-|-5-5-5-5-5-5-5-5-1------|

[Breakdown]

D#|-----------------------------------|-----------------------------------|
A#|-----------------------------------|-----------------------------------|
F#|-----------------------------------|-----------------------------------|
C#|-----0--0--0-0--0---0--0--0-0--0---|---0--0--0-0--0---0--0--0-0--0-----| (x2)
G#|---5-0--0--0-0--0-5-0--0--0-0--0-7-|-5-0--0--0-0--0-5-0--0--0-0--0-4---|
C#|-----0--0--0-0--0---0--0--0-0--0---|---0--0--0-0--0---0--0--0-0--0-----|

D#|-----------------------------------|-----------------------------------|
A#|-----------------------------------|-----------------------------------|
F#|-----------------------------------|-----------------------------------|
C#|---0-0-0-0-3-3-3-3-8-8-8-8-5-5-5-5-|-0-0-0-0-3-3-3-3-8-8-8-8-1-1-1-1---| 
G#|---0-0-0-0-3-3-3-3-8-8-8-8-5-5-5-5-|-0-0-0-0-3-3-3-3-8-8-8-8-1-1-1-1---|
C#|---0-0-0-0-3-3-3-3-8-8-8-8-5-5-5-5-|-0-0-0-0-3-3-3-3-8-8-8-8-1-1-1-1---|

[Chorus]

D#|-----------------------|-----------------------------------|
A#|-----------------------|-----------------------------------|
F#|-----------------------|-----------------------------------|
C#|---12-0--0-0--0-0--0-0-|-3-3-3-3-3-3-3-3-8-8-8-8-8-8-8-8---|
G#|---12-0--0-0--0-0--0-0-|-3-3-3-3-3-3-3-3-8-8-8-8-8-8-8-8---|
C#|---12-0--0-0--0-0--0-0-|-3-3-3-3-3-3-3-3-8-8-8-8-8-8-8-8---|

D#|-----------------------|-----------------------|
A#|-----------------------|-----------------------|
F#|-----------------------|-----------------------|
C#|---12-0--0-0--0-0--0-0-|-5-5-5-5-5-5-5-5-1-1---|
G#|---12-0--0-0--0-0--0-0-|-5-5-5-5-5-5-5-5-1-1---|
C#|---12-0--0-0--0-0--0-0-|-5-5-5-5-5-5-5-5-1-1---|

D#|-----------------------|-----------------------------------|
A#|-----------------------|-----------------------------------|
F#|-----------------------|-----------------------------------|
C#|---12-0--0-0--0-0--0-0-|-3-3-3-3-3-3-3-3-8-8-8-8-8-8-8-8---|
G#|---12-0--0-0--0-0--0-0-|-3-3-3-3-3-3-3-3-8-8-8-8-8-8-8-8---|
C#|---12-0--0-0--0-0--0-0-|-3-3-3-3-3-3-3-3-8-8-8-8-8-8-8-8---|

D#|-----------------------|------------------------|
A#|-----------------------|------------------------|
F#|-----------------------|------------------------|
C#|---12-0--0-0--0-0--0-0-|-5-5-5-5-5-5-5-5-1------|
G#|---12-0--0-0--0-0--0-0-|-5-5-5-5-5-5-5-5-1-4~---|
C#|---12-0--0-0--0-0--0-0-|-5-5-5-5-5-5-5-5-1------|


************************************

| x   Dead note
| ~   Vibrato

************************************

            
            
Suggest correction
Creating personal tab
Creating personal tab
You can edit any tab online and save it as your Personal.

You can edit, replace or remove any tab part or add personal notes – all changes will be seen only by you.

Personal tabs can be accessed anytime from any device, even offline.
Learn more »
Give kudos to tab author, rate the tab!
1 2 3 4 5
comments
print report bad tab
1 comment total.
0 reply
Thepiercer12 74 Jun 03, 2017 11:20 PM

OMG HAHA i just made a tab for this song too LMAO

guest
You may want to rate the tab now too:
select rating
Wanna post a correction for this tab? Suggest correction