Oops, an error
Loading. Please wait.

Never Enough tab

version 3
version 3

Whole song

Interactive

487 views 1 this week
no commentswrite comment
1 2 3 4 5
1 last vote to show rating
add to favorites
×
Save as Personal and add changes to this tab that will be seen only by you. Learn more ›
×
You can save this tab as Personal to edit and correct it or add notes. All changes will be seen only by you. Learn more »
launch autoscroll
font size
0
reset
how to read this tab
guitar tuner
edit
Autoscroll
slow
fast
+/-
esc
set tempo
stop
Gtr I (D A D G B E) - 'Jerry Horton'
Gtr II (D A D G B E) - 'Jerry Horton'
Gtr III (D A D G B E) - 'Jerry Horton'
Gtr IV (D A D G B E) - 'Jerry Horton'


 Intro
  Moderate Rock Q=88
  D5
 4/4
  Gtrs I, II
  W
|-------------------------|
|-------------------------|
|-------------------------|
|-0-----------------------|
|-0-----------------------|
|-0-----------------------|
|
| Gtr III
| E. S +E  E +S  E. E S S
|-------------------------|
|-------------------------|
|-------------------------|
|-4--7-(7)-6-(6)-7--9-7-6-|
|-------------------------|
|-------------------------|


              C#5    E5      D5
  +H           Q     Q       W
|--------------------------|--------------------------|
|--------------------------|--------------------------|
|--------------------------|--------------------------|
|-(0)----------6-----2-----|-0------------------------|
|-(0)----------4-----2-----|-0------------------------|
|-(0)----------6-----2-----|-0------------------------|
|
|  E. S +E  E +S  E. E S S   E. S +E  E +S  E. E S S
|--------------------------|--------------------------|
|--------------------------|--------------------------|
|--------------------------|--------------------------|
|--4--7-(7)-6-(6)-7--9-7-6-|-4--7-(7)-6-(6)-7--9-7-6--|
|--------------------------|--------------------------|
|--------------------------|--------------------------|


             C#5    E5      D                                     C#5    E5
  H           Q     Q       H           H              H           Q     Q
|-5-----------------------|-------------------------|--------------------------|
|-3-----------------------|-------------------------|--------------------------|
|-2-----------------------|------------11-----------|-14-----------------------|
|-------------6-----2-----|-0-----------x-----------|--x-----------6-----2-----|
|-------------4-----2-----|-0-----------9-----------|-12-----------4-----2-----|
|-------------6-----2-----|-0-----------------------|--------------6-----2-----|
|
| E. S +E  E +S  E. E S S   E. S +E  E +S  E. E S S    E. S +E  E +S  E. E S S
|-------------------------|-------------------------|--------------------------|
|-------------------------|-------------------------|--------------------------|
|-------------------------|-------------------------|--------------------------|
|-4--7-(7)-6-(6)-7--9-7-6-|-4--7-(7)-6-(6)-7--9-7-6-|--4--7-(7)-6-(6)-7--9-7-6-|
|-------------------------|-------------------------|--------------------------|
|-------------------------|-------------------------|--------------------------|


  D55                                    C#5    E5
                              TP
    W                         H           Q     Q
|---------------------------|-------------------------|
|---------------------------|-------------------------|
|---------------------------|-7-----------------------|
|---0-----------------------|-------------6-----2-----|
|---0-----------------------|-5-----------4-----2-----|
|---0-----------------------|-------------6-----2-----|
|
|   E. S +E  E +S  E. E S S   E. S +E  E +S  E. E S S
|---------------------------|-------------------------|
|---------------------------|-------------------------|
|---------------------------|-------------------------|
|---4--7-(7)-6-(6)-7--9-7-6-|-4--7-(7)-6-(6)-7--9-7-6-|
|---------------------------|-------------------------|
|---------------------------|-------------------------|
|
|   Gtr IV
|   W                         W
|---------------------------|-------------------------|
|---------------------------|-------------------------|
|---------------------------|-------------------------|
|---------------------------|-------------------------|
|---------------------------|-------------------------|
|---------------------------|-------------------------|


  F#sus2
   E  S  S   S  S  S S   E      S S  S S  S  S
|-----------------------------------------------|
|-----------------------------------------------|
|-----------------------------------------------|
|--6--7--6------6--------6------7-6----6--------|
|--4--4--4------4--------4------4-4----4--------|
|--4--4--4------4----0---4------4-4----4-----0--|
|
|  E.    S  +E     E    +S   E.      E    S  S
|-----------------------------------------------|
|-----------------------------------------------|
|-----------------------------------------------|
|--4-----7--(7)----6----(6)--7-------9----7--6--|
|-----------------------------------------------|
|-----------------------------------------------|
|
|  E.    S  +E     E    +S   E.      E    S  S
|-----------------------------------------------|
|-----------------------------------------------|
|-11----14-(14)---13---(13)-14------16---14-13--|
|-----------------------------------------------|
|-----------------------------------------------|
|-----------------------------------------------|


                                       D5         F#sus2
   E  S  S   S  S  S S   E      S S  S E.          E  S  S   S  S  S S   E      S S  S S  S  S
|-----------------------------------------------|----------------------------------------------|
|-----------------------------------------------|----------------------------------------------|
|-----------------------------------------------|----------------------------------------------|
|--6--7--6------6--------6------7-6-------------|--6--7--6------6--------6------7-6----6-------|
|--4--4--4------4--------4------4-4----0--------|--4--4--4------4--------4------4-4----4-------|
|--4--4--4------4----0---4------4-4----0--------|--4--4--4------4----0---4------4-4----4-----0-|
|
|  E.    S  +E     E    +S   E.      E     S  S    E.    S  +E     E    +S   E.      E    S  S
|-----------------------------------------------|----------------------------------------------|
|-----------------------------------------------|----------------------------------------------|
|-----------------------------------------------|----------------------------------------------|
|--4-----7--(7)----6----(6)--7-------9-----7--6-|--4-----7--(7)----6----(6)--7-------9----7--6-|
|-----------------------------------------------|----------------------------------------------|
|-----------------------------------------------|----------------------------------------------|
|
|  E.    S  +E     E    +S   E.      E     S  S    E.    S  +E     E    +S   E.      E    S  S
|-----------------------------------------------|----------------------------------------------|
|-----------------------------------------------|----------------------------------------------|
|-11----14-(14)---13---(13)-14------16----14-13-|-11----14-(14)---13---(13)-14------16---14-13-|
|-----------------------------------------------|----------------------------------------------|
|-----------------------------------------------|----------------------------------------------|
|-----------------------------------------------|----------------------------------------------|


                                       D5
   E  S  S   S  S  S S   E      S S  S E.
|-------------------------------------------------||
|-------------------------------------------------||
|-------------------------------------------------||
|--6--7--6------6--------6------7-6---------------||
|--4--4--4------4--------4------4-4----0----------||
|--4--4--4------4----0---4------4-4----0----------||
|
|  E.    S  +E     E    +S   E.      E     S  S
|-------------------------------------------------||
|-------------------------------------------------||
|-------------------------------------------------||
|--4-----7--(7)----6----(6)--7-------9-----7--6---||
|-------------------------------------------------||
|-------------------------------------------------||
|
|  E.    S  +E     E    +S   E.      E     S  S
|-------------------------------------------------||
|-------------------------------------------------||
|-11----14-(14)---13---(13)-14------16----14-13---||
|-------------------------------------------------||
|-------------------------------------------------||
|-------------------------------------------------||


   Verse
    F#sus2                                              D5
    Gtrs I, II
    E S S S S S S E S S S S S S   E S S S S S S E S S S E.
||------------------------------|--------------------------|
||o-----------------------------|--------------------------|
||------------------------------|--------------------------|
||--6-7-6---6-----6-7-6---6-----|-6-7-6---6-----6-7-6------|
||o-4-4-4---4-----4-4-4---4-----|-4-4-4---4-----4-4-4---0--|
||--4-4-4---4---0-4-4-4---4---0-|-4-4-4---4---0-4-4-4---0--|


  F#sus2                                              D5
  E S S S S S S E S S S S S S   E S S S S S S E S S S E.
|-----------------------------|--------------------------|
|-----------------------------|--------------------------|
|-----------------------------|--------------------------|
|-6-7-6---6-----6-7-6---6-----|-6-7-6---6-----6-7-6------|
|-4-4-4---4-----4-4-4---4-----|-4-4-4---4-----4-4-4---0--|
|-4-4-4---4---0-4-4-4---4---0-|-4-4-4---4---0-4-4-4---0--|


  B5
  Gtr III
   PM--------------------------------------
   S S  S  S S  S S S  S S  S  S S  S S S
|-----------------------------------------|
|-----------------------------------------|
|-----------------------------------------|
|--4-4--4--7-7--7-6-6--6-7--7--7-9--9-7-6-|
|-----------------------------------------|
|-----------------------------------------|
|
| Gtrs I, II
|  E    S  S S  S E    E    S  S S  S E
|-----------------------------------------|
|-----------------------------------------|
|-11---11-11---11-----11---11-11---11-----|
|--9----9--9----9------9----9--9----9-----|
|--9----9--9----9------9----9--9----9-----|
|--9----9--9----9------9----9--9----9-----|


  Bsus4               Bm
 ---------------------------------------|
   S S  S  S S  S S S  S S  S  S S  S S S
|------------------------------------------|
|------------------------------------------|
|------------------------------------------|
|--4-4--4--7-7--7-6-6--6-7--7--7-9--9-7-6--|
|------------------------------------------|
|------------------------------------------|
|
|  E    S  S S  S E    E    S  S S  S E
|------------------------------------------|
|------------------------------------------|
|------------------------------------------|
|-14---14-14---14-----12---12-12---12------|
|--9----9--9----9------9----9--9----9------|
|--9----9--9----9------9----9--9----9------|


  F#sus2
   E  S  S  +E    E    E  S  S  +E    E
|-----------------------------------------|
|-----------------------------------------|
|-13-14-13-(13)-------13-14-13-(13)-------|
|--x--x--x--(x)--------x--x--x--(x)-------|
|-11-12-11-(11)-------11-12-11-(11)-------|
|-----------------------------------------|
|
|  E  S  S   S  S S S  E  S  S   S  S S S
|-----------------------------------------|
|-----------------------------------------|
|-----------------------------------------|
|--6--7--6------6------6--7--6------6-----|
|--4--4--4------4------4--4--4------4-----|
|--4--4--4------4---0--4--4--4------4---0-|


                                    D5
   E  S  S  +E    E    E  S  S  +S   E.
|---------------------------------------|
|---------------------------------------|
|-13-14-13-(13)-------13-14-13-(13)-----|
|--x--x--x--(x)--------x--x--x--(x)-12--|
|-11-12-11-(11)-------11-12-11-(11)--x--|
|-----------------------------------12--|
|
|  E  S  S   S  S S S  E  S  S   S   E.
|---------------------------------------|
|---------------------------------------|
|---------------------------------------|
|--6--7--6------6------6--7--6----------|
|--4--4--4------4------4--4--4-------0--|
|--4--4--4------4---0--4--4--4-------0--|


  F#sus2
   E  S  S  +E    E    E  S  S  +E    E
|-----------------------------------------|
|-----------------------------------------|
|-13-14-13-(13)-------13-14-13-(13)-------|
|--x--x--x--(x)--------x--x--x--(x)-------|
|-11-12-11-(11)-------11-12-11-(11)-------|
|-----------------------------------------|
|
|  E  S  S   S  S S S  E  S  S   S  S S S
|-----------------------------------------|
|-----------------------------------------|
|-----------------------------------------|
|--6--7--6------6------6--7--6------6-----|
|--4--4--4------4------4--4--4------4-----|
|--4--4--4------4---0--4--4--4------4---0-|


                                    D5
   E  S  S  +E    E    E  S  S  +S   E.
|---------------------------------------|
|---------------------------------------|
|-13-14-13-(13)-------13-14-13-(13)-----|
|--x--x--x--(x)--------x--x--x--(x)-12--|
|-11-12-11-(11)-------11-12-11-(11)--x--|
|-----------------------------------12--|
|
|  E  S  S   S  S S S  E  S  S   S   E.
|---------------------------------------|
|---------------------------------------|
|---------------------------------------|
|--6--7--6------6------6--7--6----------|
|--4--4--4------4------4--4--4-------0--|
|--4--4--4------4---0--4--4--4-------0--|


  B5
   E  S  S  +E     E  E  S  S  +E     E
|---------------------------------------|
|---------------------------------------|
|-13-14-13-(13)------13-14-13-(13)------|
|--x--x--x--(x)-------x--x--x--(x)------|
|-11-12-11-(11)------11-12-11-(11)------|
|---------------------------------------|
|
|  E  S  S   S   S E  E  S  S   S   S E
|---------------------------------------|
|---------------------------------------|
|-11-11-11------11---11-11-11------11---|
|--9--9--9-------9----9--9--9-------9---|
|--9--9--9-------9----9--9--9-------9---|
|--9--9--9-------9----9--9--9-------9---|


  Bsus4               Bsus2       Bm
   E  S  S  +E   E     E     S  S  +S   E.
|------------------------------------------------||
|------------------------------------------------||
|-13-14-13-(13)-------13----14-13-(13)-----------||
|--x--x--x--(x)--------x-----x--x--(x)-12--------||
|-11-12-11-(11)-------11----12-11-(11)--x--------||
|--------------------------------------12--------||
|
|  E  S  S   E   S  S  S  S  S  S   S   S   S  S
|------------------------------------------------||
|------------------------------------------------||
|------------------------------------------------||
|-14-14-14--14--14-14-11-11-11-11--12--12--12-12-||
|--9--9--9---9---9--9--9--9--9--9---9---9---9--9-||
|--9--9--9---9---9--9--9--9--9--9---9---9---9--9-||


 Chorus
  N.C.
  Gtrs I, II
  S S S S S E. S S S S S S E   S S S S S E. S S S S S S E
|----------------------------|----------------------------|
|----------------------------|----------------------------|
|----------------------------|----------------------------|
|----------------------------|----------------------------|
|-4-7-4-6-4-0--4-7-4-6-7-6-0-|-4-7-4-6-4-0--4-7-4-6-7-6-0-|
|-4-7-4-6-4-0--4-7-4-6-7-6-0-|-4-7-4-6-4-0--4-7-4-6-7-6-0-|


                              1.
  S S S S S E. S S S S S S E   S S S S S E. S S S S S S E
|----------------------------|-----------------------------||
|----------------------------|----------------------------o||
|----------------------------|-----------------------------||
|----------------------------|-----------------------------||
|-4-7-4-6-4-0--4-7-4-6-7-6-0-|-4-7-4-6-4-0--4-7-4-6-7-6-0-o||
|-4-7-4-6-4-0--4-7-4-6-7-6-0-|-4-7-4-6-4-0--4-7-4-6-7-6-0--||


  2.
  S S S S S E. S S S S S S E   S S S S S E. S S S S S S E
|----------------------------|----------------------------|
|----------------------------|----------------------------|
|----------------------------|----------------------------|
|----------------------------|----------------------------|
|-4-7-4-6-4-0--4-7-4-6-7-6-0-|-4-7-4-6-4-0--4-7-4-6-7-6-0-|
|-4-7-4-6-4-0--4-7-4-6-7-6-0-|-4-7-4-6-4-0--4-7-4-6-7-6-0-|


  S S S S S E. S S S S S S E   S S S S S E. S S S S S S E
|----------------------------|----------------------------|
|----------------------------|----------------------------|
|----------------------------|----------------------------|
|----------------------------|----------------------------|
|-4-7-4-6-4-0--4-7-4-6-7-6-0-|-4-7-4-6-4-0--4-7-4-6-7-6-0-|
|-4-7-4-6-4-0--4-7-4-6-7-6-0-|-4-7-4-6-4-0--4-7-4-6-7-6-0-|


                               Interlude
                                D5
  S S S S S E. S S S S S S E    W
|----------------------------||----------|
|----------------------------||----------|
|----------------------------||----------|
|----------------------------||-0--------|
|-4-7-4-6-4-0--4-7-4-6-7-6-0-||-0--------|
|-4-7-4-6-4-0--4-7-4-6-7-6-0-||-0--------|


  D      C#5E5   D5              C#5E5
  +H     Q  Q    W          H    Q  Q
|--------------|----------|-5----------|
|--------------|----------|-3----------|
|--------------|----------|-2----------|
|-(0)----6--2--|-0--------|------6--2--|
|-(0)----4--2--|-0--------|------4--2--|
|-(0)----6--2--|-0--------|------6--2--|


  D                  C#5E5   D5              C#5E5
                                        TP
  H     H       H    Q  Q    W          H    Q  Q
|------------|-------------|----------|-------------||
|------------|-------------|----------|-------------||
|------11----|-14----------|----------|-7-----------||
|-0-----x----|--x----6--2--|-0--------|------6--2---||
|-0-----9----|-12----4--2--|-0--------|-5----4--2---||
|-0----------|-------6--2--|-0--------|------6--2---||


   Bridge
    N.C.
    Gtr III
    PM--------------------------------------------------------------|
    S S S S S S S S S S S S S S S S   S S S S S S S S S S S S S S S S
||----------------------------------|---------------------------------|
||o---------------------------------|---------------------------------|
||----------------------------------|---------------------------------|
||--4-4-4-7-7-7-6-6-6-7-7-7-9-9-7-6-|-4-4-4-7-7-7-6-6-6-7-7-7-9-9-7-6-|
||o---------------------------------|---------------------------------|
||----------------------------------|---------------------------------|


  PM--------------------------------------------------------------|
  S S S S S S S S S S S S S S S S   S S S S S S S S S S S S S S S S   3x
|---------------------------------|-----------------------------------||
|---------------------------------|----------------------------------o||
|---------------------------------|-----------------------------------||
|-4-4-4-7-7-7-6-6-6-7-7-7-9-9-7-6-|-4-4-4-7-7-7-6-6-6-7-7-7-9-9-7-6---||
|---------------------------------|----------------------------------o||
|---------------------------------|-----------------------------------||


 Outro-Chorus
  N.C.
  Gtrs I, II
  S S S S S S S S S S S S S S S S   S S S S S S S S S S S S S S S S
|---------------------------------|----------------------------------|
|---------------------------------|----------------------------------|
|---------------------------------|----------------------------------|
|---------------------------------|----------------------------------|
|-4-4-4-7-7-7-6-6-6-7-7-7-9-9-7-6-|-4-4-4-7-7-7-6-6-6-7-7-7-9-9-7-6--|
|-4-4-4-7-7-7-6-6-6-7-7-7-9-9-7-6-|-4-4-4-7-7-7-6-6-6-7-7-7-9-9-7-6--|


  S S S S S S S S S S S S S S S S   S S S S S S S S S S S S S S S S
|---------------------------------|----------------------------------|
|---------------------------------|----------------------------------|
|---------------------------------|----------------------------------|
|---------------------------------|----------------------------------|
|-4-4-4-7-7-7-6-6-6-7-7-7-9-9-7-6-|-4-4-4-7-7-7-6-6-6-7-7-7-9-9-7-6--|
|-4-4-4-7-7-7-6-6-6-7-7-7-9-9-7-6-|-4-4-4-7-7-7-6-6-6-7-7-7-9-9-7-6--|


  C#5
   S  S  S  S  S  S  S  S  S  S  S  S  S  S  E
|-----------------------------------------------|
|-----------------------------------------------|
|-----------------------------------------------|
|-11-11-11-11-11-11-11-11-11-11-11-11-11-11-11\-|
|-11-11-11-11-11-11-11-11-11-11-11-11-11-11-11\-|
|-11-11-11-11-11-11-11-11-11-11-11-11-11-11-11\-|


  E5
  S S S S S S S S S S S S S S S S
|---------------------------------|
|---------------------------------|
|-4-4-4-4-4-4-4-4-9-9-9-9-9-9-9-9-|
|-2-2-2-2-2-2-2-2-x-x-x-x-x-x-x-x-|
|-2-2-2-2-2-2-2-2-7-7-7-7-7-7-7-7-|
|-2-2-2-2-2-2-2-2-----------------|


  N.C.
  S S S S S E. S S S S S S E   S S S S S E. S S S S S S E
|----------------------------|----------------------------|
|----------------------------|----------------------------|
|----------------------------|----------------------------|
|----------------------------|----------------------------|
|-4-7-4-6-4-0--4-7-4-6-7-6-0-|-4-7-4-6-4-0--4-7-4-6-7-6-0-|
|-4-7-4-6-4-0--4-7-4-6-7-6-0-|-4-7-4-6-4-0--4-7-4-6-7-6-0-|


  S S S S S E. S S S S S S E   S S S S S E. S S S S S S E
|----------------------------|----------------------------|
|----------------------------|----------------------------|
|----------------------------|----------------------------|
|----------------------------|----------------------------|
|-4-7-4-6-4-0--4-7-4-6-7-6-0-|-4-7-4-6-4-0--4-7-4-6-7-6-0-|
|-4-7-4-6-4-0--4-7-4-6-7-6-0-|-4-7-4-6-4-0--4-7-4-6-7-6-0-|


  S S S S S E. S S S S S S E   S S S S S E. S S S S S S E
|----------------------------|----------------------------|
|----------------------------|----------------------------|
|----------------------------|----------------------------|
|----------------------------|----------------------------|
|-4-7-4-6-4-0--4-7-4-6-7-6-0-|-4-7-4-6-4-0--4-7-4-6-7-6-0-|
|-4-7-4-6-4-0--4-7-4-6-7-6-0-|-4-7-4-6-4-0--4-7-4-6-7-6-0-|


  S S S S S E. S S S S S S E
|------------------------------|
|------------------------------|
|------------------------------|
|------------------------------|
|-4-7-4-6-4-0--4-7-4-6-7-6-0---|
|-4-7-4-6-4-0--4-7-4-6-7-6-0---|


                           D5                C#5
                                                 TP
  S S S S S E. S S S S S S E   +H.      Q    Q  +H.
|----------------------------|-------------|-----------*|
|----------------------------|-------------|-----------*|
|----------------------------|-------------|-----------*|
|----------------------------|----------0--|-6--(6)----*|
|-4-7-4-6-4-0--4-7-4-6-7-6-0-|-(0)------0--|-4--(4)----*|
|-4-7-4-6-4-0--4-7-4-6-7-6-0-|-(0)------0--|-6--(6)----*|




--------------------------------------------------------------------------------


Duration Legend
---------------
W - whole; H - half; Q - quarter; E - 8th; S - 16th; T - 32nd; X - 64th; a - acciaccatura
+ - note tied to previous; . - note dotted; .. - note double dotted
Uncapitalized letters represent notes that are staccato (1/2 duration)
Irregular groupings are notated above the duration line
Duration letters will always appear directly above the note/fret number it represents the
duration for.  Duration letters with no fret number below them represent rests.  Multi-
bar rests are notated in the form Wxn, where n is the number of bars to rest for.  Low
melody durations appear below the staff

Tablature Legend
----------------
 h   - hammer-on
 p   - pull-off
 b   - bend
 pb  - pre-bend
 r   - bend release (if no number after the r, then release immediately)
 /\  - slide into or out of (from/to "nowhere")
 s   - legato slide
 S   - shift slide
 - natural harmonic
[n]  - artificial harmonic
n(n) - tapped harmonic
 ~   - vibrato
 tr  - trill
 T   - tap
 TP  - trem. picking
 PM  - palm muting
\n/  - tremolo bar dip; n = amount to dip
 \n  - tremolo bar down
 n/  - tremolo bar up
/n\  - tremolo bar inverted dip
 =   - hold bend; also acts as connecting device for hammers/pulls
 <> - volume swell (louder/softer)
 x   - on rhythm slash represents muted slash
 o   - on rhythm slash represents single note slash

Misc Legend
-----------
 |  - bar
||  - double bar
||o - repeat start
o|| - repeat end
*|  - double bar (ending)
 :  - bar (freetime)
 $  - Segno
 &  - Coda
Tempo markers -  = BPM(8/16=s8/s16), where s8 = swing 8ths, s16 = swing 16ths



            
            
Suggest correction
Creating personal tab
Creating personal tab
You can edit any tab online and save it as your Personal.

You can edit, replace or remove any tab part or add personal notes – all changes will be seen only by you.

Personal tabs can be accessed anytime from any device, even offline.
Learn more »
Give kudos to tab author, rate the tab!
1 2 3 4 5
comments
print report bad tab
guest
You may want to rate the tab now too:
select rating
Wanna post a correction for this tab? Suggest correction