Oops, an error
Loading. Please wait.

No Matter What Acoustic tab

version 5
version 5

Whole song

Interactive

1,817 views 24 this week
no commentswrite comment
1 2 3 4 5
x 3
add to favorites
×
Save as Personal and add changes to this tab that will be seen only by you. Learn more ›
×
You can save this tab as Personal to edit and correct it or add notes. All changes will be seen only by you. Learn more »
launch autoscroll
font size
0
reset
how to read this tab
guitar tuner
edit
Autoscroll
slow
fast
+/-
esc
set tempo
stop
NO MATTER WHAT - ACOUSTIC - VIDEO VERSION


e|--3-3-3-3--3-3-3-3--2-2-2-2--2-2-2-2--3-3-3-3--3-3-3-3--3-3-3-3--3-3-3-3-------|
B|--3-3-3-3--3-3-3-3--3-3-3-3--3-3-3-3--3-3-3-3--3-3-3-3--3-3-3-3--3-3-3-3-------|
G|--0-0-0-0--0-0-0-0--2-2-2-2--2-2-2-2--0-0-0-0--0-0-0-0--0-0-0-0--0-0-0-0-------|
D|--2-2-2-2--2-2-2-2--------------------2-2-2-2--2-2-2-2--0-0-0-0--0-0-0-0-------|
A|--3-3-3-3--3-3-3-3--------------------2-2-2-2--2-2-2-2--2-2-2-2--2-2-2-2-------|
E|--------------------------------------------------------3-3-3-3--3-3-3-3-------|

e|--3-3-3-3--3-3-3-3--2-2-2-2--2-2-2-2--3-3-3-3--3-3-3-3--3-3-3-3--3-3-3-3-------|
B|--3-3-3-3--3-3-3-3--3-3-3-3--3-3-3-3--3-3-3-3--3-3-3-3--3-3-3-3--3-3-3-3-------|
G|--0-0-0-0--0-0-0-0--2-2-2-2--2-2-2-2--0-0-0-0--0-0-0-0--0-0-0-0--0-0-0-0-------|
D|--2-2-2-2--2-2-2-2--------------------2-2-2-2--2-2-2-2--0-0-0-0--0-0-0-0-------|
A|--3-3-3-3--3-3-3-3--------------------2-2-2-2--2-2-2-2--2-2-2-2--2-2-2-2-------|
E|--------------------------------------------------------3-3-3-3--3-3-3-3-------|

e|--3-3-3-3--3-3-3-3--2-2-2-2--2-2-2-2--3-3-3-3--3-3-3-3--3-3-3-3--3-3-3-3-------|
B|--3-3-3-3--3-3-3-3--3-3-3-3--3-3-3-3--3-3-3-3--3-3-3-3--3-3-3-3--3-3-3-3-------|
G|--0-0-0-0--0-0-0-0--2-2-2-2--2-2-2-2--0-0-0-0--0-0-0-0--0-0-0-0--0-0-0-0-------|
D|--2-2-2-2--2-2-2-2--------------------2-2-2-2--2-2-2-2--0-0-0-0--0-0-0-0-------|
A|--3-3-3-3--3-3-3-3--------------------2-2-2-2--2-2-2-2--2-2-2-2--2-2-2-2-------|
E|--------------------------------------------------------3-3-3-3--3-3-3-3-------|
    I NEED YOU RIGHT  HERE BY MY        SIDE

e|--3-3-3-3--3-3-3-3--2-2-2-2--2-2-2-2--3-3-3-3--3-3-3-3--3-3-3-3--3-3-3-3-------|
B|--3-3-3-3--3-3-3-3--3-3-3-3--3-3-3-3--3-3-3-3--3-3-3-3--3-3-3-3--3-3-3-3-------|
G|--0-0-0-0--0-0-0-0--2-2-2-2--2-2-2-2--0-0-0-0--0-0-0-0--0-0-0-0--0-0-0-0-------|
D|--2-2-2-2--2-2-2-2--------------------2-2-2-2--2-2-2-2--0-0-0-0--0-0-0-0-------|
A|--3-3-3-3--3-3-3-3--------------------2-2-2-2--2-2-2-2--2-2-2-2--2-2-2-2-------|
E|--------------------------------------------------------3-3-3-3--3-3-3-3-------|
    CAUSE YOU’RE      NOT IN MY         LIFE
    EVERYTHING I’M

e|--3-3-3-3--3-3-3-3--2-2-2-2--2-2-2-2--3-3-3-3--3-3-3-3--3-3-3-3--3-3-3-3-------|
B|--3-3-3-3--3-3-3-3--3-3-3-3--3-3-3-3--3-3-3-3--3-3-3-3--3-3-3-3--3-3-3-3-------|
G|--0-0-0-0--0-0-0-0--2-2-2-2--2-2-2-2--0-0-0-0--0-0-0-0--0-0-0-0--0-0-0-0-------|
D|--2-2-2-2--2-2-2-2--------------------2-2-2-2--2-2-2-2--0-0-0-0--0-0-0-0-------|
A|--3-3-3-3--3-3-3-3--------------------2-2-2-2--2-2-2-2--2-2-2-2--2-2-2-2-------|
E|--------------------------------------------------------3-3-3-3--3-3-3-3-------|
WERE INDESTRUCTIBLE   UNTOUCHABLE       TAKE US DOWN      TONIGHT
WE ARE                NOTHING CAN

e|--3-3-3-3--3-3-3-3--2-2-2-2--2-2-2-2--3-3-3-3--3-3-3-3--3-3-3-3--3-3-3-3-------|
B|--3-3-3-3--3-3-3-3--3-3-3-3--3-3-3-3--3-3-3-3--3-3-3-3--3-3-3-3--3-3-3-3-------|
G|--0-0-0-0--0-0-0-0--2-2-2-2--2-2-2-2--0-0-0-0--0-0-0-0--0-0-0-0--0-0-0-0-------|
D|--2-2-2-2--2-2-2-2--------------------2-2-2-2--2-2-2-2--0-0-0-0--0-0-0-0-------|
A|--3-3-3-3--3-3-3-3--------------------2-2-2-2--2-2-2-2--2-2-2-2--2-2-2-2-------|
E|--------------------------------------------------------3-3-3-3--3-3-3-3-------|
    YOU ARE SO       SHOULD BE CRIMINAL BE                MINE AND IF WE
    BEAUTIFUL IT     THAT YOU COULD 

e|--3-3-3-3--3-3-3-3--2-2-2-2--2-2-2-2--3-3-3-3--3-3-3-3---2-2-2-2--2-2-2-2------|
B|--3-3-3-3--3-3-3-3--3-3-3-3--3-3-3-3--3-3-3-3--3-3-3-3---3-3-3-3--3-3-3-3------|
G|--0-0-0-0--0-0-0-0--0-0-0-0--0-0-0-0--0-0-0-0--0-0-0-0---2-2-2-2--2-2-2-2------|
D|--2-2-2-2--2-2-2-2--2-2-2-2--2-2-2-2--2-2-2-2--2-2-2-2-------------------------|
A|--3-3-3-3--3-3-3-3--3-3-3-3--3-3-3-3--2-2-2-2--2-2-2-2-------------------------|
E|-------------------------------------------------------------------------------|
    MAKE IT OUT ALIVE I PROMISE         YOU THIS LOVE WILL  NEVER DIE

e|--3-3-3-3--3-3-3-3--3-3-3-3--3-3-3-3--2-2-2-2--2-2-2-2--2-2-2-2--2-2-2-2---|
B|--3-3-3-3--3-3-3-3--3-3-3-3--3-3-3-3--3-3-3-3--3-3-3-3--3-3-3-3--3-3-3-3---|
G|--0-0-0-0--0-0-0-0--0-0-0-0--0-0-0-0--2-2-2-2--2-2-2-2--2-2-2-2--2-2-2-2---|
D|--0-0-0-0--0-0-0-0--0-0-0-0--0-0-0-0---------------------------------------|
A|--2-2-2-2--2-2-2-2--2-2-2-2--2-2-2-2---------------------------------------|
E|--3-3-3-3--3-3-3-3--3-3-3-3--3-3-3-3---------------------------------------|
    NO MATTER WHAT I GOT YOUR           BACK I’LL TAKE A BULLET FOR YOU IF IT COMES TO

e|--3-3-3-3--3-3-3-3--2-2-2-2--2-2-2-2--3-3-3-3--3-3-3-3---3-3-3-3--3-3-3-3----|
B|--3-3-3-3--3-3-3-3--3-3-3-3--3-3-3-3--3-3-3-3--3-3-3-3---3-3-3-3--3-3-3-3----|
G|--0-0-0-0--0-0-0-0--0-0-0-0--0-0-0-0--0-0-0-0--2-2-2-2---0-0-0-0--2-2-2-2----|
D|--2-2-2-2--2-2-2-2--2-2-2-2--2-2-2-2--0-0-0-0--0-0-0-0---0-0-0-0--0-0-0-0----|
A|--3-3-3-3--3-3-3-3--3-3-3-3--3-3-3-3--2-2-2-2--0-0-0-0---2-2-2-2--0-0-0-0----|
E|--------------------------------------3-3-3-3--3-3-3-3---3-3-3-3--3-3-3-3----|
    THAT I SWEAR TO GOD WE’LL BE        OKAY

e|--3-3-3-3--3-3-3-3--2-2-2-2--2-2-2-2--3-3-3-3--3-3-3-3--3-3-3-3--3-3-3-3-------|
B|--3-3-3-3--3-3-3-3--3-3-3-3--3-3-3-3--3-3-3-3--3-3-3-3--3-3-3-3--3-3-3-3-------|
G|--0-0-0-0--0-0-0-0--2-2-2-2--2-2-2-2--0-0-0-0--0-0-0-0--0-0-0-0--0-0-0-0-------|
D|--2-2-2-2--2-2-2-2--------------------2-2-2-2--2-2-2-2--0-0-0-0--0-0-0-0-------|
A|--3-3-3-3--3-3-3-3--------------------2-2-2-2--2-2-2-2--2-2-2-2--2-2-2-2-------|
E|--------------------------------------------------------3-3-3-3--3-3-3-3-------|
    SO BELIEVE ME     SAY YOU’RE THE    ONE               THEY’LL NEVER
    WHEN I 

e|--3-3-3-3--3-3-3-3---2-2-2-2--2-2-2-2--3-3-3-3--3-3-3-3--3-3-3-3--3-3-3-3-------|
B|--3-3-3-3--3-3-3-3---3-3-3-3--3-3-3-3--3-3-3-3--3-3-3-3--3-3-3-3--3-3-3-3-------|
G|--0-0-0-0--0-0-0-0---2-2-2-2--2-2-2-2--0-0-0-0--0-0-0-0--0-0-0-0--0-0-0-0-------|
D|--2-2-2-2--2-2-2-2---------------------2-2-2-2--2-2-2-2--0-0-0-0--0-0-0-0-------|
A|--3-3-3-3--3-3-3-3---------------------2-2-2-2--2-2-2-2--2-2-2-2--2-2-2-2-------|
E|---------------------------------------------------------3-3-3-3--3-3-3-3-------|
    FORGIVE US FOR THE THINGS            WE’VE DONE 

e|--3-3-3-3--3-3-3-3--2-2-2-2--2-2-2-2--3-3-3-3--3-3-3-3---2-2-2-2--2-2-2-2------|
B|--3-3-3-3--3-3-3-3--3-3-3-3--3-3-3-3--3-3-3-3--3-3-3-3---3-3-3-3--3-3-3-3------|
G|--0-0-0-0--0-0-0-0--0-0-0-0--0-0-0-0--0-0-0-0--0-0-0-0---2-2-2-2--2-2-2-2------|
D|--2-2-2-2--2-2-2-2--2-2-2-2--2-2-2-2--2-2-2-2--2-2-2-2-------------------------|
A|--3-3-3-3--3-3-3-3--3-3-3-3--3-3-3-3--2-2-2-2--2-2-2-2-------------------------|
E|-------------------------------------------------------------------------------|
    MAKE IT OUT ALIVE I PROMISE         YOU THIS LOVE WILL  NEVER DIE

e|--3-3-3-3--3-3-3-3--3-3-3-3--3-3-3-3--2-2-2-2--2-2-2-2--2-2-2-2--2-2-2-2---|
B|--3-3-3-3--3-3-3-3--3-3-3-3--3-3-3-3--3-3-3-3--3-3-3-3--3-3-3-3--3-3-3-3---|
G|--0-0-0-0--0-0-0-0--0-0-0-0--0-0-0-0--2-2-2-2--2-2-2-2--2-2-2-2--2-2-2-2---|
D|--0-0-0-0--0-0-0-0--0-0-0-0--0-0-0-0---------------------------------------|
A|--2-2-2-2--2-2-2-2--2-2-2-2--2-2-2-2---------------------------------------|
E|--3-3-3-3--3-3-3-3--3-3-3-3--3-3-3-3---------------------------------------|
    NO MATTER WHAT I GOT YOUR           BACK I’LL TAKE A BULLET FOR YOU IF IT COMES TO

e|--3-3-3-3--3-3-3-3--2-2-2-2--2-2-2-2---2-2-2-2--2-2-2-2--2-2-2-2--2-2-2-2------|
B|--3-3-3-3--3-3-3-3--3-3-3-3--3-3-3-3---3-3-3-3--3-3-3-3--3-3-3-3--3-3-3-3------|
G|--0-0-0-0--0-0-0-0--0-0-0-0--0-0-0-0---2-2-2-2--2-2-2-2--2-2-2-2--2-2-2-2------|
D|--2-2-2-2--2-2-2-2--2-2-2-2--2-2-2-2-------------------------------------------|
A|--3-3-3-3--3-3-3-3--3-3-3-3--3-3-3-3-------------------------------------------|
E|-------------------------------------------------------------------------------|
  THAT I SWEAR TO GOD THAT IN THE BITTER END WE’LL BE THE LAST ONE STANDING 

e|--3-3-3-3--3-3-3-3--2-2-2-2--2-2-2-2---2-2-2-2--2-2-2-2--2-2-2-2--2-2-2-2------|
B|--3-3-3-3--3-3-3-3--3-3-3-3--3-3-3-3---3-3-3-3--3-3-3-3--3-3-3-3--3-3-3-3------|
G|--0-0-0-0--0-0-0-0--0-0-0-0--0-0-0-0---2-2-2-2--2-2-2-2--2-2-2-2--2-2-2-2------|
D|--2-2-2-2--2-2-2-2--2-2-2-2--2-2-2-2-------------------------------------------|
A|--3-3-3-3--3-3-3-3--3-3-3-3--3-3-3-3-------------------------------------------|
E|-------------------------------------------------------------------------------|
    WE’LL NEVER FALL WE’LL NEVER         FADE I’LL PROMISE YOU FOREVER AND MY SOUL TO

e|--3-3-3-3--3-3-3-3--2-2-2-2--2-2-2-2---2-2-2-2--2-2-2-2--2-2-2-2--2-2-2-2------|
B|--3-3-3-3--3-3-3-3--3-3-3-3--3-3-3-3---3-3-3-3--3-3-3-3--3-3-3-3--3-3-3-3------|
G|--0-0-0-0--0-0-0-0--0-0-0-0--0-0-0-0---2-2-2-2--2-2-2-2--2-2-2-2--2-2-2-2------|
D|--2-2-2-2--2-2-2-2--2-2-2-2--2-2-2-2-------------------------------------------|
A|--3-3-3-3--3-3-3-3--3-3-3-3--3-3-3-3-------------------------------------------|
E|-------------------------------------------------------------------------------|
    TAKE NO MATTER WHAT UNTIL THE BITTER END WERE GONNA BE THE LAST ONE STANDING

e|--3-3-3-3--3-3-3-3--2-2-2-2--2-2-2-2---2-2-2-2--2-2-2-2--2-2-2-2--2-2-2-2------|
B|--3-3-3-3--3-3-3-3--3-3-3-3--3-3-3-3---3-3-3-3--3-3-3-3--3-3-3-3--3-3-3-3------|
G|--0-0-0-0--0-0-0-0--0-0-0-0--0-0-0-0---2-2-2-2--2-2-2-2--2-2-2-2--2-2-2-2------|
D|--2-2-2-2--2-2-2-2--2-2-2-2--2-2-2-2-------------------------------------------|
A|--3-3-3-3--3-3-3-3--3-3-3-3--3-3-3-3-------------------------------------------|
E|-------------------------------------------------------------------------------|
    EVERYBODY SAID THAT WE WOULD NEVER   IF THEY COULD SEE US NOW I BET THEY’D 
    LAST                                 TAKE IT BACK

e|--3-3-3-3--3-3-3-3--2-2-2-2--2-2-2-2---2-2-2-2--2-2-2-2--2-2-2-2--2-2-2-2------|
B|--3-3-3-3--3-3-3-3--3-3-3-3--3-3-3-3---3-3-3-3--3-3-3-3--3-3-3-3--3-3-3-3------|
G|--0-0-0-0--0-0-0-0--0-0-0-0--0-0-0-0---2-2-2-2--2-2-2-2--2-2-2-2--2-2-2-2------|
D|--2-2-2-2--2-2-2-2--2-2-2-2--2-2-2-2-------------------------------------------|
A|--3-3-3-3--3-3-3-3--3-3-3-3--3-3-3-3-------------------------------------------|
E|-------------------------------------------------------------------------------|
    IT DOESN’T MATTER WHAT WE DO OR      SAY CAUSE NOTHING MATTERS 
    WHAT WE 

e|--3-3-3-3--3-3-3-3--2-2-2-2--2-2-2-2----2-2-2-2--2-2-2-2--2-2-2-2--2-2-2-2-----|
B|--3-3-3-3--3-3-3-3--3-3-3-3--3-3-3-3----3-3-3-3--3-3-3-3--3-3-3-3--3-3-3-3-----|
G|--0-0-0-0--0-0-0-0--0-0-0-0--0-0-0-0----4-4-4-4--4-4-4-4--4-4-4-4--4-4-4-4-----|
D|--2-2-2-2--2-2-2-2--2-2-2-2--2-2-2-2----4-4-4-4--4-4-4-4--4-4-4-4--4-4-4-4-----|
A|--2-2-2-2--2-2-2-2--2-2-2-2--2-2-2-2----2-2-2-2--2-2-2-2--2-2-2-2--2-2-2-2-----|
E|-------------------------------------------------------------------------------|
    ANYWAY

e|--3-3-3-3--3-3-3-3--2-2-2-2--2-2-2-2---2-2-2-2--2-2-2-2--2-2-2-2--2-2-2-2------|
B|--3-3-3-3--3-3-3-3--3-3-3-3--3-3-3-3---3-3-3-3--3-3-3-3--3-3-3-3--3-3-3-3------|
G|--0-0-0-0--0-0-0-0--0-0-0-0--0-0-0-0---2-2-2-2--2-2-2-2--2-2-2-2--2-2-2-2------|
D|--2-2-2-2--2-2-2-2--2-2-2-2--2-2-2-2-------------------------------------------|
A|--3-3-3-3--3-3-3-3--3-3-3-3--3-3-3-3-------------------------------------------|
E|-------------------------------------------------------------------------------|

e|--3-3-----------3-3-----------------2-2---2-2-2-2--2-2-2-2--2-2-2-2------------|
B|--3-3-----------3-3-----------------3-3---3-3-3-3--3-3-3-3--3-3-3-3------------|
G|--0-0-----------0-0-----------------2-2---2-2-2-2--2-2-2-2--2-2-2-2------------|
D|--0-0-----------0-0------------------------------------------------------------|
A|--2-2-----------2-2------------------------------------------------------------|
E|--3-3-----------3-3------------------------------------------------------------|
        NO MATTER WHAT, I’VE GOT YOUR BACK  I’LL TAKE A BULLET FOR YOU IF IT COMES TO

e|--3-3-------------3-3---3-3-3-3--3-3-3-3--3-3-3-3--3-3-3-3------------------|
B|--3-3-------------3-3---3-3-3-3--3-3-3-3--3-3-3-3--3-3-3-3------------------|
G|--0-0-------------0-0---0-0-0-0--2-2-2-2--0-0-0-0--2-2-2-2------------------|
D|--2-2-------------2-2---0-0-0-0--0-0-0-0--0-0-0-0--0-0-0-0------------------|
A|--3-3-------------3-3---2-2-2-2--0-0-0-0--2-2-2-2--0-0-0-0------------------|
E|------------------------3-3-3-3--3-3-3-3--3-3-3-3--3-3-3-3------------------|
    THAT I SWEAR TO GOD

e|--3-3-3-3--3-3-3-3--2-2-2-2--2-2-2-2---2-2-2-2--2-2-2-2--2-2-2-2--2-2-2-2------|
B|--3-3-3-3--3-3-3-3--3-3-3-3--3-3-3-3---3-3-3-3--3-3-3-3--3-3-3-3--3-3-3-3------|
G|--0-0-0-0--0-0-0-0--0-0-0-0--0-0-0-0---2-2-2-2--2-2-2-2--2-2-2-2--2-2-2-2------|
D|--2-2-2-2--2-2-2-2--2-2-2-2--2-2-2-2-------------------------------------------|
A|--3-3-3-3--3-3-3-3--3-3-3-3--3-3-3-3-------------------------------------------|
E|-------------------------------------------------------------------------------|
    WE’LL NEVER FALL WE’LL NEVER         FADE I’LL PROMISE YOU FOREVER AND MY SOUL TO

e|--3-3-3-3--3-3-3-3--2-2-2-2--2-2-2-2---2-2-2-2--2-2-2-2--2-2-2-2--2--2--2--2---3--|
B|--3-3-3-3--3-3-3-3--3-3-3-3--3-3-3-3---3-3-3-3--3-3-3-3--3-3-3-3--3--3--3--3---3--|
G|--0-0-0-0--0-0-0-0--0-0-0-0--0-0-0-0---0-0-0-0--0-0-0-0--0-0-0-0--0--0--0--0---0--|
D|--2-2-2-2--2-2-2-2--2-2-2-2--2-2-2-2---2-2-2-2--2-2-2-2--2-2-2-2--2--2--2--2---0--|
A|--3-3-3-3--3-3-3-3--3-3-3-3--3-3-3-3---3-3-3-3--3-3-3-3--3-3-3-3--3--3--3--3---2--|
E|-------------------------------------------------------------------------------3--|
    TAKE NO MATTER WHAT UNTIL THE BITTER END WERE GONNA BE THE LAST ONE STANDING
Suggest correction
Creating personal tab
Creating personal tab
You can edit any tab online and save it as your Personal.

You can edit, replace or remove any tab part or add personal notes – all changes will be seen only by you.

Personal tabs can be accessed anytime from any device, even offline.
Learn more »
Give kudos to tab author, rate the tab!
1 2 3 4 5
comments
print report bad tab
guest
You may want to rate the tab now too:
select rating
Wanna post a correction for this tab? Suggest correction