Oops, an error
Loading. Please wait.

No More Secrets bass

1,299 views 1 this week
1 commentread comment
1 2 3 4 5
3 more votes to show rating
add to favorites
×
Save as Personal and add changes to this tab that will be seen only by you. Learn more ›
×
You can save this tab as Personal to edit and correct it or add notes. All changes will be seen only by you. Learn more »
launch autoscroll
font size
0
reset
guitar tuner
edit
Autoscroll
slow
fast
+/-
esc
set tempo
stop
No More Secrets in Drop D tuning.  What else can I say?

Actually, I rank it an intermediate song because the fill in the intro
might be hard for a beginner to handle, but it's not too bad.

Intro (fast fill part)
|------------------------|
|-0-12-10-12-------10----|
|------------10-12----12-|
|------------------------|
Chorus/Main Intro
|---------------------------------------------|
|---------------------------------------------|
|---------------------------------------------|
|-12---12-12---12-12-12---12-12-12---12-12-12-|

|---------------------------------------------|
|---------------------------------------------|
|---------------------------------------------|
|-10---10-10---10-10-10---10-10-10---10-10-10-|

|-----------------------------------------------------------------|
|-----------------------------------------------------------------|
|-----------------------------------------------------------------|
|-8---8-8---8-8-8---8-8-8---8-8-8-5---5-5---5-5-5---5-5-5---5-5-5-|
Repeat Chorus
Verse
|----------------------------------------------------------|
|----------------------------------------------------------|
|-----------------------------1--1--------1--3--3--------3-|
|-0--0--------0--3--3------3-------------------------------|
PM   .        .     .      .     .        .     .        .
|----------------------------------------------------------|
|----------------------------------------------------------|
|-----------------------------1--1--------1--3--3--3--3~---|
|-5--0--------0--3--3------3-------------------------------|
PM   .        .     .      .     .        .             
Repeat Chorus x2
Post-Chorus
|--------------------|
|--------------------|
|--------------------|
|-0---0--------0---0-|
PM    .            .
Repeat Verse, Chorus x2, Post-Chorus x2, then variation of verse:
|----------------------------------------------------------|
|----------------------------------------------------------|
|-----------------------------1--1--------1--3--3--3--3~---|
|-0--0--------0--3--3------3-------------------------------|
PM   .        .     .      .     .        .
Repeat Chorus x4, end with:
|-------------------------------------------------------------|
|-------------------------------------------------------------|
|-------------------------------------------------------------|
|-12~-----------12~-----------12~-----------12~-----------12\-|
Suggest correction
Creating personal tab
Creating personal tab
You can edit any tab online and save it as your Personal.

You can edit, replace or remove any tab part or add personal notes – all changes will be seen only by you.

Personal tabs can be accessed anytime from any device, even offline.
Learn more »
Give kudos to tab author, rate the tab!
1 2 3 4 5
comments
print report bad tab
1 comment total.
0 reply
warlock roxs! 10 Dec 29, 2009 09:35 AM

absolutely insane tab! dude
it rocks! 100% thumbs up

guest
You may want to rate the tab now too:
select rating
Wanna post a correction for this tab? Suggest correction