Oops, an error
Loading. Please wait.

Reckless tab

16,866 views 9 this week
8 commentsread comments
1 2 3 4 5
x 3
add to favorites
×
Save as Personal and add changes to this tab that will be seen only by you. Learn more ›
×
You can save this tab as Personal to edit and correct it or add notes. All changes will be seen only by you. Learn more »
launch autoscroll
font size
0
reset
how to read this tab
guitar tuner
edit
Autoscroll
slow
fast
+/-
esc
set tempo
stop
Author
Song: Reckless
Artist: Papa Roach
Tuning: EADGBe Standard
Tabber: Dan Fallows (Sick of you)

I'm still trying figure out the rest of this song
This is what i have got so far...

NOTE: You can also play this in Drop D, the changed parts are at the bottom of this tab.

Intro
e|------------------------|
B|------------------------|
G|----------4b-4-2--------| x2
D|--4-2-4-2--------4-2-4--|
A|------------------------|
E|------------------------|

Intro Alternate,
e|--------------------------|
B|--------------------------|
G|--------------------------| x2
D|----------9b--9-7---------|
A|--9-7-9-7----------9-7-9\-|
E|--------------------------|

Slide down on last note 2nd time round

Pre Chours
e|------------------------------------------|
B|------------------------------------------|
G|--777777--999999--777777--999999--777777--|
D|--xxxxxx--xxxxxx--xxxxxx--xxxxxx--xxxxxx--|
A|--555555--777777--555555--777777--555555--|
E|------------------------------------------|

Chorus
e|------------------------------------------|
B|------------------------------------------|
G|----------------------77777777------------| x2
D|--77777777--44444444--77777777--22222222--| 
A|--77777777--44444444--55555555--22222222--|
E|--55555555--22222222------------00000000--|

Intro
e|------------------------|
B|------------------------|
G|----------4b-4-2--------| x2
D|--4-2-4-2--------4-2-4--|
A|------------------------|
E|------------------------|

Pre Chours
e|------------------------------------------|
B|------------------------------------------|
G|--777777--999999--777777--999999--777777--|
D|--xxxxxx--xxxxxx--xxxxxx--xxxxxx--xxxxxx--|
A|--555555--777777--555555--777777--555555--|
E|------------------------------------------|

Chorus
e|------------------------------------------|
B|------------------------------------------|
G|----------------------77777777------------| x2
D|--77777777--44444444--77777777--22222222--| 
A|--77777777--44444444--55555555--22222222--|
E|--55555555--22222222------------00000000--|

Solo thing
e|----------------------------------------|
B|----------------------------------------|
G|--9~-9-10-7~-7-9-55555555-77777777-99~--|
D|----------------------------------------|
A|----------------------------------------|
E|----------------------------------------|

Palm muted part before chorus
e|----------------|
B|----------------|
G|----------------|
D|--22222--55555--|
A|--22222--55555--|
E|--00000--33333--|
    xxxxx 

Chorus
e|------------------------------------------|
B|------------------------------------------|
G|----------------------77777777------------| x2
D|--77777777--44444444--77777777--22222222--| 
A|--77777777--44444444--55555555--22222222--|
E|--55555555--22222222------------00000000--|

--End Chorus i'm working on now--

End with
e|----------------------|
B|----------------------|
G|----------4b-4-2------| x2
D|--4-2-4-2--------4-2--|
A|----------------------|
E|----------------------|

Drop D Tuning
Song: Reckless
Artist: Papa Roach
Tuning: DADGBe Standard
Tabber: Dan Fallows (Sick of you)

Intro
e|------------------------|
B|------------------------|
G|----------4b-4-2--------| x2
D|--4-2-4-2--------4-2-4--|
A|------------------------|
D|------------------------|

Pre Chours
e|------------------------------------------|
B|------------------------------------------|
G|--777777--999999--777777--999999--777777--|
D|--xxxxxx--xxxxxx--xxxxxx--xxxxxx--xxxxxx--|
A|--555555--777777--555555--777777--555555--|
D|------------------------------------------|

Chorus
e|------------------------------------------|
B|------------------------------------------|
G|----------------------77777777------------| x2
D|--77777777--44444444--77777777--22222222--| 
A|--77777777--44444444--55555555--22222222--|
D|--77777777--44444444------------22222222--|

Intro
e|------------------------|
B|------------------------|
G|----------4b-4-2--------| x2
D|--4-2-4-2--------4-2-4--|
A|------------------------|
D|------------------------|

Pre Chours
e|------------------------------------------|
B|------------------------------------------|
G|--777777--999999--777777--999999--777777--|
D|--xxxxxx--xxxxxx--xxxxxx--xxxxxx--xxxxxx--|
A|--555555--777777--555555--777777--555555--|
D|------------------------------------------|

Chorus
e|------------------------------------------|
B|------------------------------------------|
G|----------------------77777777------------| x2
D|--77777777--44444444--77777777--22222222--| 
A|--77777777--44444444--55555555--22222222--|
D|--77777777--44444444------------22222222--|

Solo thing
e|----------------------------------------|
B|----------------------------------------|
G|--9~-9-10-7~-7-9-55555555-77777777-99~--|
D|----------------------------------------|
A|----------------------------------------|
D|----------------------------------------|

Palm muted part before chorus
e|----------------|
B|----------------|
G|----------------|
D|--22222--55555--|
A|--22222--55555--|
D|--22222--55555--|
    xxxxx 

Chorus
e|------------------------------------------|
B|------------------------------------------|
G|----------------------77777777------------| x2
D|--77777777--44444444--77777777--22222222--| 
A|--77777777--44444444--55555555--22222222--|
D|--77777777--44444444------------22222222--|

--End Chorus i'm working on now--

End with
e|------------------------|
B|------------------------|
G|----------4b-4-2--------| x2
D|--4-2-4-2--------4-2-4--|
A|------------------------|
E|------------------------|

            
            
Suggest correction
Creating personal tab
Creating personal tab
You can edit any tab online and save it as your Personal.

You can edit, replace or remove any tab part or add personal notes – all changes will be seen only by you.

Personal tabs can be accessed anytime from any device, even offline.
Learn more »
Give kudos to tab author, rate the tab!
1 2 3 4 5
comments
print report bad tab
8 comments total. Showing first comments.
0 reply
Sick_of_you 459 Sep 18, 2006 02:38 PM

I missed a note so instead of updating it, this is the small change.
Intro
e|-----------------------|
B|-----------------------|
G|----------4b-4-2-------| x4
D|--4-2-4-2--------4-2-4-|
A|-----------------------|
E|-----------------------|

0 reply
M@riano31 476 Sep 19, 2006 05:22 AM

Nice job!! i was expecting this tab :D awesome song and album!!!

+1 reply
cooldudues99 170 Mar 16, 2008 12:48 PM

i dont think the pre chorus is right sorrry but everythign elese is spot on

guest
You may want to rate the tab now too:
select rating
Wanna post a correction for this tab? Suggest correction