Oops, an error
Loading. Please wait.
We have an official She Loves Me Not tab made by UG professional guitarists. Check out the tab »
×
1,059 views 1 this week
no commentswrite comment
1 2 3 4 5
3 more votes to show rating
add to favorites
×
Save as Personal and add changes to this tab that will be seen only by you. Learn more ›
×
You can save this tab as Personal to edit and correct it or add notes. All changes will be seen only by you. Learn more »
launch autoscroll
font size
0
reset
guitar tuner
backing track
0:00
0:00
edit
Autoscroll
slow
fast
+/-
esc
set tempo
stop
Author
Artist: Papa Roach
Song: She Loves Me Not (live)
Tuning: D A D G
Tabbed by: Cody Fuller, "rockerc"

This is from the DVD Live and Murderous and also the way Tobin plays it live. It has a
differences from the recorded version such as the high A in the chorus and also the high
in the bridge. Also they have an intro of just playing the chorus' chords and also end
playing the high A several times at the end along with the drums and guitar but I
out the parts that you could play along with the recorded version with and if you want
play along with any live mp3's of this then it's self-explanatory how to do the intro and
the way they do the ending.

Verse:
G|----------------------------------------------|
D|----------------------------------------------|
A|----------------------------------------------|
D|-7-7--7----3-3--3----2-2--2----5-5--5--5-5--5-|

G|----------------------------------------------|
D|----------------------------------------------|
A|----------------------------------------------|
D|-7-7--7----3-3--3----2-2--2----5-5--5--3-3--3-|

G|----------------------------------------------|
D|----------------------------------------------|
A|----------------------------------------------|
D|-7-7--7----3-3--3----2-2--2----5-5--5--5-5--5-|

Pre-Chorus
G|--------------------------------------------------------------------------------|
D|--------------------------------------------------------------------------------|
A|--------------------------------------------------------------------------------|
D|-7-7--7--7-7-7--7-7--3-3--3--3-3-3--3-3--2-2--2--2-2-2--2-2--5-5--5--5-5-5--5-5-|

Chorus
G|------------------------------------------------|
D|-------------------------------7----------------|
A|------------------------------------------------| x2
D|-3-3-3--3--3-5-5-5--5--5-7-7-7---7--7-7-7--7--7-|

Pre-verse
G|-------------------------------------|
D|-------------------------------------|
A|-------------------------------------|
D|-2--3-3--3----3--5-5--5----5--7-7--7-|

Verse 2
G|------------------------------------|
D|------------------------------------|
A|------------------------------------|
D|-3-3--3----2-2--2----5-5--5--5-5--5-|

G|----------------------------------------------|
D|----------------------------------------------|
A|----------------------------------------------|
D|-7-7--7----3-3--3----2-2--2----5-5--5--3-3--3-|

G|----------------------------------------------|
D|----------------------------------------------|
A|----------------------------------------------|
D|-7-7--7----3-3--3----2-2--2----5-5--5--5-5--5-|

Repeat Pre-Chorus
Repeat Chorus

Bridge
G|---------------------------------------------------------|
D|----------------------------------------7-------------7--|
A|---------------------------------------------------------| x2
D|-10-10-10--10--9--9-9-9--9----7-7--7---------7-7--7------|

Repeat Pre-Chorus
Repeat Verse 2
Repeat Chorus

Chorus 3
G|----------------------------------------------------------------------------|
D|----------------------------------------------------------------------------|
A|----------------------------------------------------------------------------|
D|-3-3--3-3-3-3-3-3--5-5--5-5-5-5-5-5--7-7--7-7-7-7-7-7--7-7--7-7-7-7-7-7-7-7-|

G|------------------------------------------------------------|
D|------------------------------------------------------------|
A|------------------------------------------------------------|
D|-10-10-10--10--9--9-9-9--9----7--7-7-7---7---7--7-7-7---7---|

G|----------------------------------------------------------------|
D|----------------------------------------------------------------|
A|----------------------------------------------------------------|
D|-10-10-10---------9-9-9-------2-2-2-2-2-2-2-2-2-2-2-2-2-2-2-2-2-|

G|----------------------------------|
D|-------------------------------7--|
A|----------------------------------|
D|-3-3-3------5-5-5-----7-----------|

            
            
Suggest correction
Creating personal tab
Creating personal tab
You can edit any tab online and save it as your Personal.

You can edit, replace or remove any tab part or add personal notes – all changes will be seen only by you.

Personal tabs can be accessed anytime from any device, even offline.
Learn more »
Give kudos to tab author, rate the tab!
1 2 3 4 5
comments
print report bad tab
guest
You may want to rate the tab now too:
select rating
Wanna post a correction for this tab? Suggest correction