Oops, an error
Loading. Please wait.

Snakes tab

version 1
version 1

Whole song

Interactive

1,367 views 1 this week
2 commentsread comments
1 2 3 4 5
1 last vote to show rating
add to favorites
×
Save as Personal and add changes to this tab that will be seen only by you. Learn more ›
×
You can save this tab as Personal to edit and correct it or add notes. All changes will be seen only by you. Learn more »
launch autoscroll
font size
0
reset
how to read this tab
guitar tuner
edit
Autoscroll
slow
fast
+/-
esc
set tempo
stop
Gtr I (D A D G B E) - 'Untitled'
Gtr II (D A D G B E) - 'Untitled'
Gtr III (D A D G B E) - 'Untitled'


   Intro
    Q=90
    F5/C                 D5A5
   4/4
    Gtr I
     S  S  S  S  S  S  S S S S S S S S S S
||-----------------------------------------|
||o----------------------------------------|
||-----------------------------------------|
||--10-10-10-10-10-10-10-0-7-7-7-7-7-7-7-7-|
||o--8--8--8--8--8--8--8-0-7-7-7-7-7-7-7-7-|
||--10-10-10-10-10-10-10-0-7-7-7-7-7-7-7-7-|


  Fmaj7/A                 A5
   S  S  S  S  S  S  S  S S S S S S S S S
|------------------------------------------||
|-----------------------------------------o||
|-10-10-10-10-10-10-10-10-9-9-9-9-9-9-9-9--||
|--7--7--7--7--7--7--7--7-7-7-7-7-7-7-7-7--||
|--7--7--7--7--7--7--7--7-7-7-7-7-7-7-7-7-o||
|--7--7--7--7--7--7--7--7-7-7-7-7-7-7-7-7--||


  E                                            D
  Gtrs I, II
   S  S  S  S  S  S  S  S  S  S  S  S  S  S  S  S
|-------------------------------------------------|
|-------------------------------------------------|
|--9--9--9--9--9--9--9--9--9--9--9--9--9--9--9s=7-|
|--x--x--x--x--x--x--x--x--x--x--x--x--x--x--x----|
|--7--7--7--7--7--7--7--7--7--7--7--7--7--7--7s=5-|
|-------------------------------------------------|
|
| Gtr III
|  S  S  S  S  S  S  S  S  S  S  S  S  S  S  S  S
|-12-12-12-12-12-12-12-12-12-12-12-12-12-12-12-12-|
|--x--x--x--x--x--x--x--x--x--x--x--x--x--x--x--x-|
|--9--9--9--9--9--9--9--9--9--9--9--9--9--9--9--9-|
|-------------------------------------------------|
|-------------------------------------------------|
|-------------------------------------------------|


   S  S  S  S  S  S  S  S  S  S  S  S  S  S  S  S
|-------------------------------------------------|
|-------------------------------------------------|
|--7--7--7--7--7--7--7--7--7--7--7--7--7--7--7--7-|
|--x--5--5--x--x--x--x--x--x--x--x--x--x--x--x--x-|
|--5--5--5--5--5--5--5--5--5--5--5--5--5--5--5--5-|
|-------------------------------------------------|
|
|  S  S  S  S  S  S  S  S  S  S  S  S  S  S  S  S
|-10-10-10-10-10-10-10-10-10-10-10-10-10-10-10-10-|
|--x--x--x--x--x--x--x--x--x--x--x--x--x--x--x--x-|
|--7--7--7--7--7--7--7--7--7--7--7--7--7--7--7--7-|
|-------------------------------------------------|
|-------------------------------------------------|
|-------------------------------------------------|


  A5 E
   S  S  S  S  S  S  S  S  S  S  S  S  S  S  S  S
|-------------------------------------------------|
|-------------------------------------------------|
|-------------------------------------------------|
|--7--7--7--7--7--7--7--7--7--7--7--7--7--7--7--7-|
|--7--7--7--7--7--7--7--7--7--7--7--7--7--7--7--7-|
|--7--7--7--7--7--7--7--7--7--7--7--7--7--7--7--7-|
|
|  S  S  S  S  S  S  S  S  S  S  S  S  S  S  S  S
|-12-12-12-12-12-12-12-12-12-12-12-12-12-12-12-12-|
|--x--x--x--x--x--x--x--x--x--x--x--x--x--x--x--x-|
|--9--9--9--9--9--9--9--9--9--9--9--9--9--9--9--9-|
|-------------------------------------------------|
|-------------------------------------------------|
|-------------------------------------------------|


  F
   S  S  S  S  S  S  S  S  S  S  S  S  S  S  S  S
|-------------------------------------------------||
|-------------------------------------------------||
|-10-10-10-10-10-10-10-10-10-10-10-10-10-10-10-10-||
|--x--x--x--x--x--x--x--x--x--x--x--x--x--x--x--x-||
|--8--8--8--8--8--8--8--8--8--8--8--8--8--8--8--8-||
|-------------------------------------------------||
|
|  S  S  S  S  S  S  S  S  S  S  S  S  S  S  S  S
|-13-13-13-13-13-13-13-13-13-13-13-13-13-13-13-13-||
|--x--x--x--x--x--x--x--x--x--x--x--x--x--x--x--x-||
|-10-10-10-10-10-10-10-10-10-10-10-10-10-10-10-10-||
|-------------------------------------------------||
|-------------------------------------------------||
|-------------------------------------------------||


   Verse
    E        D                                    D
    Gtr I
     S  S  S  S  S  S   S  S  S  S  S  S  S  S  S  S
||---------------------------------------------------|
||o--------------------------------------------------|
||---9--9--9--9--9--9---9--9--9--9--9--9--9--9--9s=7-|
||---x--x--x--x--x--x---x--x--x--x--x--x--x--x--x----|
||o--7--7--7--7--7--7---7--7--7--7--7--7--7--7--7s=5-|
||---------------------------------------------------|
|
|   Gtr II
|    S  S  S  S  S  E.        H
||---------------------------------------------------|
||o--------------------------------------------------|
||------9--9--7--9-----------------------------------|
||------x--x--x--x-----------------------------------|
||o-----7--7--5--7-----------------------------------|
||---------------------------------------------------|
|
|   Gtr III
|    S  S  S  S  S  S   S  S  S  S  S  S  S  S  S  S
||--12-12-12-12-12-12--12-12-12-12-12-12-12-12-12-12-|
||o--x--x--x--x--x--x---x--x--x--x--x--x--x--x--x--x-|
||---9--9--9--9--9--9---9--9--9--9--9--9--9--9--9--9-|
||---------------------------------------------------|
||o--------------------------------------------------|
||---------------------------------------------------|


   S  S  S  S  S  S  S  S  S  S  S  S  S  S  S  S
|--------------------------------------------------|
|--------------------------------------------------|
|--7--7--7--7--7--7--7--7--7--7--7--7--7--7--7--7--|
|--x--x--x--x--x--x--x--x--x--x--x--x--x--x--x--x--|
|--5--5--5--5--5--5--5--5--5--5--5--5--5--5--5--5--|
|--------------------------------------------------|
|
|  W
|--------------------------------------------------|
|--------------------------------------------------|
|--------------------------------------------------|
|--------------------------------------------------|
|--------------------------------------------------|
|--------------------------------------------------|
|
|  S  S  S  S  S  S  S  S  S  S  S  S  S  S  S  S
|-10-10-10-10-10-10-10-10-10-10-10-10-10-10-10-10--|
|--x--x--x--x--x--x--x--x--x--x--x--x--x--x--x--x--|
|--7--7--7--7--7--7--7--7--7--7--7--7--7--7--7--7--|
|--------------------------------------------------|
|--------------------------------------------------|
|--------------------------------------------------|


  A5 E
   S  S  S  S  S  S  S  S  S  S  S  S  S  S  S  S
|-------------------------------------------------|
|-------------------------------------------------|
|-------------------------------------------------|
|--7--7--7--7--7--7--7--7--7--7--7--7--7--7--7--7-|
|--7--7--7--7--7--7--7--7--7--7--7--7--7--7--7--7-|
|--7--7--7--7--7--7--7--7--7--7--7--7--7--7--7--7-|
|
|  S  S  S  S  S  S  S  S  S  S  S  S  S  S  S  S
|-12-12-12-12-12-12-12-12-12-12-12-12-12-12-12-12-|
|--x--x--x--x--x--x--x--x--x--x--x--x--x--x--x--x-|
|--9--9--9--9--9--9--9--9--9--9--9--9--9--9--9--9-|
|-------------------------------------------------|
|-------------------------------------------------|
|-------------------------------------------------|


 1.
  A5 Bb5                A5Bb5
  Gtrs I, II
   S   S    S    S  E E S S S S E E
|------------------------------------||
|-----------------------------------o||
|------------------------------------||
|--7s==8----8----8--8---7s8-8-8-8----||
|--7s==8----8----8--8---7s8-8-8-8---o||
|--7s==8----8----8--8---7s8-8-8-8----||
|
|  S   S    S    S  Q   H
|-12-(12)-(12)-(12)------------------||
|--x--------------------------------o||
|--9--(9)--(9)--(9)------------------||
|------------------------------------||
|-----------------------------------o||
|------------------------------------||


  2.
  F  D
  Gtr I
   S  S  S  S  S  S  S  S  S  S  S  S  S  S  S  S
|-------------------------------------------------|
|-------------------------------------------------|
|-10-10-10-10-10-10-10-10-10-10-10-10-10-10-10-10-|
|--x--x--x--x--x--x--x--x--x--x--x--x--x--x--x--x-|
|--8--8--8--8--8--8--8--8--8--8--8--8--8--8--8--8-|
|-------------------------------------------------|
|
| Gtr III
|  S  S  S  S  S  S  S  S  S  S  S  S  S  S  S  S
|-10-10-10-10-10-10-10-10-10-10-10-10-10-10-10-10-|
|--x--x--x--x--x--x--x--x--x--x--x--x--x--x--x--x-|
|--7--7--7--7--7--7--7--7--7--7--7--7--7--7--7--7-|
|-------------------------------------------------|
|-------------------------------------------------|
|-------------------------------------------------|


  E                                                 D
   S  S  S  S  S  E     S  S  S  S  S  S  E     S    S  S  S  S  S  E     S  S  S  S  S  S  E     S
|-------------------------------------------------|-------------------------------------------------|
|-------------------------------------------------|-------------------------------------------------|
|--9--9--9--9-----9-----9--9--9--9--9-----9-----9-|--7--7--7--7-----7-----7--7--7--7--7-----7-----7-|
|--x--x--x--x-----x-----x--x--x--x--x-----x-----x-|--x--x--x--x-----x-----x--x--x--x--x-----x-----x-|
|--7--7--7--7-----7-----7--7--7--7--7-----7-----7-|--5--5--5--5-----5-----5--5--5--5--5-----5-----5-|
|-------------------------------------------------|-------------------------------------------------|
|
|  S  S  S  S  S  S  S  S  S  S  S  S  S  S  S  S    S  S  S  S  S  S  S  S  S  S  S  S  S  S  S  S
|-12-12-12-12-12-12-12-12-12-12-12-12-12-12-12-12-|-10-10-10-10-10-10-10-10-10-10-10-10-10-10-10-10-|
|--x--x--x--x--x--x--x--x--x--x--x--x--x--x--x--x-|--x--x--x--x--x--x--x--x--x--x--x--x--x--x--x--x-|
|--9--9--9--9--9--9--9--9--9--9--9--9--9--9--9--9-|--7--7--7--7--7--7--7--7--7--7--7--7--7--7--7--7-|
|-------------------------------------------------|-------------------------------------------------|
|-------------------------------------------------|-------------------------------------------------|
|-------------------------------------------------|-------------------------------------------------|


  A5 E
   S  S  S  S  S  S  S  S  S  S  S  S  S  S  S  S
|-------------------------------------------------|
|-------------------------------------------------|
|-------------------------------------------------|
|--7--7--7--7--7--7--7--7--7--7--7--7--7--7--7--7-|
|--7--7--7--7--7--7--7--7--7--7--7--7--7--7--7--7-|
|--7--7--7--7--7--7--7--7--7--7--7--7--7--7--7--7-|
|
|  S  S  S  S  S  S  S  S  S  S  S  S  S  S  S  S
|-12-12-12-12-12-12-12-12-12-12-12-12-12-12-12-12-|
|--x--x--x--x--x--x--x--x--x--x--x--x--x--x--x--x-|
|--9--9--9--9--9--9--9--9--9--9--9--9--9--9--9--9-|
|-------------------------------------------------|
|-------------------------------------------------|
|-------------------------------------------------|


  A5 Bb5                A5Bb5
  Gtrs I, II
   S   S    S    S  E E S S S S E E
|-----------------------------------||
|-----------------------------------||
|-----------------------------------||
|--7s==8----8----8--8---7s8-8-8-8---||
|--7s==8----8----8--8---7s8-8-8-8---||
|--7s==8----8----8--8---7s8-8-8-8---||
|
|  S   S    S    S  Q   H
|-12-(12)-(12)-(12)-----------------||
|--x--------------------------------||
|--9--(9)--(9)--(9)-----------------||
|-----------------------------------||
|-----------------------------------||
|-----------------------------------||


   Chorus
    $                                        To Coda
    A5        D5F5            D5          E5      E5
    S S E S E S S S E S E S   S S E S E S S S E S E S  4x
||--------------------------|--------------------------||
||o-------------------------|-------------------------o||
||--------------------------|--------------------------||
||--7-7-7-7-7-0-3-3-3-3-3-3-|-0-0-0-0-0---2-2-2---2-2--||
||o-7-7-7-7-7-0-3-3-3-3-3-3-|-0-0-0-0-0---2-2-2---2-2-o||
||--7-7-7-7-7-0-3-3-3-3-3-3-|-0-0-0-0-0-3-2-2-2-3-2-2--||


 Interlude
  E
  Gtr III
   S  S  S  S  S  S  S  S  S  S  S  S  S  S  S  S
|-12-12-12-12-12-12-12-12-12-12-12-12-12-12-12-12-|
|--x--x--x--x--x--x--x--x--x--x--x--x--x--x--x--x-|
|--9--9--9--9--9--9--9--9--9--9--9--9--9--9--9--9-|
|-------------------------------------------------|
|-------------------------------------------------|
|-------------------------------------------------|
|
| Gtr II
|  W
|-------------------------------------------------|
|-------------------------------------------------|
|-------------------------------------------------|
|-------------------------------------------------|
|-------------------------------------------------|
|-------------------------------------------------|


  D                                                 E
   S  S  S  S  S  S  S  S  S  S  S  S  S  S  S  S    S   S    S    S  Q       H
|-10-10-10-10-10-10-10-10-10-10-10-10-10-10-10-10-|-12-(12)-(12)-(12)------------------------||
|--x--x--x--x--x--x--x--x--x--x--x--x--x--x--x--x-|--x---------------------------------------||
|--7--7--7--7--7--7--7--7--7--7--7--7--7--7--7--7-|--9--(9)--(9)--(9)------------------------||
|-------------------------------------------------|------------------------------------------||
|-------------------------------------------------|------------------------------------------||
|-------------------------------------------------|------------------------------------------||
|
|                                                                             Gtrs I, II
|                                                                       PM--------------|
|  W                                                 Q                S S S S S S S S S S E
|-------------------------------------------------|------------------------------------------||
|-------------------------------------------------|------------------------------------------||
|-------------------------------------------------|------------------------------------------||
|-------------------------------------------------|------------------------------------------||
|-------------------------------------------------|---------------------------0-1-----0-1----||
|-------------------------------------------------|---------------------2-5-2-------2--------||


   Verse
    E        D                                    D
    Gtr I
     S  S  S  S  S  S   S  S  S  S  S  S  S  S  S  S
||---------------------------------------------------|
||o--------------------------------------------------|
||---9--9--9--9--9--9---9--9--9--9--9--9--9--9--9s=7-|
||---x--x--x--x--x--x---x--x--x--x--x--x--x--x--x----|
||o--7--7--7--7--7--7---7--7--7--7--7--7--7--7--7s=5-|
||---------------------------------------------------|
|
|   Gtr II
|    S  S  S  S  S  E.        H
||---------------------------------------------------|
||o--------------------------------------------------|
||------9--9--7--9-----------------------------------|
||------x--x--x--x-----------------------------------|
||o-----7--7--5--7-----------------------------------|
||---------------------------------------------------|
|
|   Gtr III
|    S  S  S  S  S  S   S  S  S  S  S  S  S  S  S  S
||--12-12-12-12-12-12--12-12-12-12-12-12-12-12-12-12-|
||o--x--x--x--x--x--x---x--x--x--x--x--x--x--x--x--x-|
||---9--9--9--9--9--9---9--9--9--9--9--9--9--9--9--9-|
||---------------------------------------------------|
||o--------------------------------------------------|
||---------------------------------------------------|


   S  S  S  S  S  S  S  S  S  S  S  S  S  S  S  S
|--------------------------------------------------|
|--------------------------------------------------|
|--7--7--7--7--7--7--7--7--7--7--7--7--7--7--7--7--|
|--x--x--x--x--x--x--x--x--x--x--x--x--x--x--x--x--|
|--5--5--5--5--5--5--5--5--5--5--5--5--5--5--5--5--|
|--------------------------------------------------|
|
|  W
|--------------------------------------------------|
|--------------------------------------------------|
|--------------------------------------------------|
|--------------------------------------------------|
|--------------------------------------------------|
|--------------------------------------------------|
|
|  S  S  S  S  S  S  S  S  S  S  S  S  S  S  S  S
|-10-10-10-10-10-10-10-10-10-10-10-10-10-10-10-10--|
|--x--x--x--x--x--x--x--x--x--x--x--x--x--x--x--x--|
|--7--7--7--7--7--7--7--7--7--7--7--7--7--7--7--7--|
|--------------------------------------------------|
|--------------------------------------------------|
|--------------------------------------------------|


  A5 E
   S  S  S  S  S  S  S  S  S  S  S  S  S  S  S  S
|-------------------------------------------------|
|-------------------------------------------------|
|-------------------------------------------------|
|--7--7--7--7--7--7--7--7--7--7--7--7--7--7--7--7-|
|--7--7--7--7--7--7--7--7--7--7--7--7--7--7--7--7-|
|--7--7--7--7--7--7--7--7--7--7--7--7--7--7--7--7-|
|
|  S  S  S  S  S  S  S  S  S  S  S  S  S  S  S  S
|-12-12-12-12-12-12-12-12-12-12-12-12-12-12-12-12-|
|--x--x--x--x--x--x--x--x--x--x--x--x--x--x--x--x-|
|--9--9--9--9--9--9--9--9--9--9--9--9--9--9--9--9-|
|-------------------------------------------------|
|-------------------------------------------------|
|-------------------------------------------------|


 1.
  A5 Bb5                A5Bb5
  Gtrs I, II
   S   S    S    S  E E S S S S E E
|------------------------------------||
|-----------------------------------o||
|------------------------------------||
|--7s==8----8----8--8---7s8-8-8-8----||
|--7s==8----8----8--8---7s8-8-8-8---o||
|--7s==8----8----8--8---7s8-8-8-8----||
|
|  S   S    S    S  Q   H
|-12-(12)-(12)-(12)------------------||
|--x--------------------------------o||
|--9--(9)--(9)--(9)------------------||
|------------------------------------||
|-----------------------------------o||
|------------------------------------||


  2.
  F  E
   S  S  S  S  S  S  S  S  S  S  S  S  S  S  S  S
|-------------------------------------------------|
|-------------------------------------------------|
|-10-10-10-10-10-10-10-10-10-10-10-10-10-10-10-10-|
|--x--x--x--x--x--x--x--x--x--x--x--x--x--x--x--x-|
|--8--8--8--8--8--8--8--8--8--8--8--8--8--8--8--8-|
|-------------------------------------------------|
|
| Gtr III
|  S  S  S  S  S  S  S  S  S  S  S  S  S  S  S  S
|-12-12-12-12-12-12-12-12-12-12-12-12-12-12-12-12-|
|--x--x--x--x--x--x--x--x--x--x--x--x--x--x--x--x-|
|--9--9--9--9--9--9--9--9--9--9--9--9--9--9--9--9-|
|-------------------------------------------------|
|-------------------------------------------------|
|-------------------------------------------------|


  A5                       G5A5   Bb5                      G5
  Gtrs I, II
   Q                 Q  Q  S E.    Q                 Q  Q  e e
|-------------------------------|-------------------------------|
|-------------------------------|-------------------------------|
|-------------------------------|-------------------------------|
|--7\----------------------5-7--|--8\----------------------5-5--|
|--7\----------------------5-7--|--8\----------------------5-5--|
|--7\----------------------5-7--|--8\----------------------5-5--|
|
|  S    S    S    S  Q  H          S    S    S    S  Q  H
|-12--(12)-(12)-(12)------------|-13--(13)-(13)-(13)------------|
|--x----------------------------|--x----------------------------|
|--9---(9)--(9)--(9)------------|-10--(10)-(10)-(10)------------|
|-------------------------------|-------------------------------|
|-------------------------------|-------------------------------|
|-------------------------------|-------------------------------|


  E
   S  S  S  S  S  S  S  S  S  S  S  S  S  S  S  S
|-------------------------------------------------|
|-------------------------------------------------|
|--9--9--9--9--9--9--9--9--9--9--9--9--9--9--9--9-|
|--x--x--x--x--x--x--x--x--x--x--x--x--x--x--x--x-|
|--7--7--7--7--7--7--7--7--7--7--7--7--7--7--7--7-|
|-------------------------------------------------|
|
|  S  S  S  S  S  S  S  S  S  S  S  S  S  S  S  S
|-12-12-12-12-12-12-12-12-12-12-12-12-12-12-12-12-|
|--x--x--x--x--x--x--x--x--x--x--x--x--x--x--x--x-|
|--9--9--9--9--9--9--9--9--9--9--9--9--9--9--9--9-|
|-------------------------------------------------|
|-------------------------------------------------|
|-------------------------------------------------|


  A5                    A5
   S   S    S    S  E E S S S S E E
|-----------------------------------|
|-----------------------------------|
|-----------------------------------|
|--7s==8----8----8--8---7s8-8-8-8---|
|--7s==8----8----8--8---7s8-8-8-8---|
|--7s==8----8----8--8---7s8-8-8-8---|
|
|  S   S    S    S  Q   H
|-12-(12)-(12)-(12)-----------------|
|--x--------------------------------|
|--9--(9)--(9)--(9)-----------------|
|-----------------------------------|
|-----------------------------------|
|-----------------------------------|


                             Interlude
            D.S. al Coda  &
  A5Bb5       A5Bb5           F5/C                 D5A5
  S S S S E E S S S S E E      S  S  S  S  S  S  S S S S S S S S S S
|-------------------------||-----------------------------------------|
|-------------------------||o----------------------------------------|
|-------------------------||-----------------------------------------|
|-7s8-8-8-8---7s8-8-8-8---||--10-10-10-10-10-10-10-0-7-7-7-7-7-7-7-7-|
|-7s8-8-8-8---7s8-8-8-8---||o--8--8--8--8--8--8--8-0-7-7-7-7-7-7-7-7-|
|-7s8-8-8-8---7s8-8-8-8---||--10-10-10-10-10-10-10-0-7-7-7-7-7-7-7-7-|


  Fmaj7/A                 A5
   S  S  S  S  S  S  S  S S S S S S S S S   4x
|-------------------------------------------||
|------------------------------------------o||
|-10-10-10-10-10-10-10-10-9-9-9-9-9-9-9-9---||
|--7--7--7--7--7--7--7--7-7-7-7-7-7-7-7-7---||
|--7--7--7--7--7--7--7--7-7-7-7-7-7-7-7-7--o||
|--7--7--7--7--7--7--7--7-7-7-7-7-7-7-7-7---||


    A5        D5          Bb5       E5   F5E5D5
    S E. S E. S E. S E.   S E. S E. S E. S E S
||----------------------|-----------------------||
||o---------------------|----------------------o||
||----------------------|-----------------------||
||--7-7--7-7--0-0--0-0--|-8-8--8-8--2-2--3-2-0--||
||o-7-7--7-7--0-0--0-0--|-8-8--8-8--2-2--3-2-0-o||
||--7-7--7-7--0-0--0-0--|-8-8--8-8--2-2--3-2-0--||


   Outro
                         1.,2.
    A5        D5            D       E     E
    S E. S E. S E. S E.   S E. Q  S E.  S E.  3x
||----------------------|---------------------||
||o---------------------|--------------------o||
||----------------------|---7--7--7s9--10s9---||
||--7-7--7-7--0-0--0-0--|---x--x--x-----x-----||
||o-7-7--7-7--0-0--0-0--|---5--5--5s7---8s7--o||
||--7-7--7-7--0-0--0-0--|---------------------||


  3.
    D       F5E5 F5E5 F5E5 F5E5   F5E5 F5E5 F5E5 F5E5
 2/4       4/4
  S E. Q    S E. S E. S E. S E.   S E. S E. S E. S E.
|---------|---------------------|---------------------|
|---------|---------------------|---------------------|
|---7--7--|---------------------|---------------------|
|---x--x--|-3-2--3-2--3-2--3-2--|-3-2--3-2--3-2--3-2--|
|---5--5--|-3-2--3-2--3-2--3-2--|-3-2--3-2--3-2--3-2--|
|---------|-3-2--3-2--3-2--3-2--|-3-2--3-2--3-2--3-2--|


  F5E5 F5E5 F5E5 F5E5   A5
  S E. S E. S E. S E.   W          Q  Q   H
|---------------------|----------|-------------*|
|---------------------|----------|-------------*|
|---------------------|----------|-------------*|
|-3-2--3-2--3-2--3-2--|-7--------|-7--7\-------*|
|-3-2--3-2--3-2--3-2--|-7--------|-7--7\-------*|
|-3-2--3-2--3-2--3-2--|-7--------|-7--7\-------*|




--------------------------------------------------------------------------------


Duration Legend
---------------
W - whole; H - half; Q - quarter; E - 8th; S - 16th; T - 32nd; X - 64th; a - acciaccatura
+ - note tied to previous; . - note dotted; .. - note double dotted
Uncapitalized letters represent notes that are staccato (1/2 duration)
Irregular groupings are notated above the duration line
Duration letters will always appear directly above the note/fret number it represents the
duration for.  Duration letters with no fret number below them represent rests.  Multi-
bar rests are notated in the form Wxn, where n is the number of bars to rest for.  Low
melody durations appear below the staff

Tablature Legend
----------------
 h   - hammer-on
 p   - pull-off
 b   - bend
 pb  - pre-bend
 r   - bend release (if no number after the r, then release immediately)
 /\  - slide into or out of (from/to "nowhere")
 s   - legato slide
 S   - shift slide
 - natural harmonic
[n]  - artificial harmonic
n(n) - tapped harmonic
 ~   - vibrato
 tr  - trill
 T   - tap
 TP  - trem. picking
 PM  - palm muting
\n/  - tremolo bar dip; n = amount to dip
 \n  - tremolo bar down
 n/  - tremolo bar up
/n\  - tremolo bar inverted dip
 =   - hold bend; also acts as connecting device for hammers/pulls
 <> - volume swell (louder/softer)
 x   - on rhythm slash represents muted slash
 o   - on rhythm slash represents single note slash

Misc Legend
-----------
 |  - bar
||  - double bar
||o - repeat start
o|| - repeat end
*|  - double bar (ending)
 :  - bar (freetime)
 $  - Segno
 &  - Coda
Tempo markers -  = BPM(8/16=s8/s16), where s8 = swing 8ths, s16 = swing 16ths



            
            
Suggest correction
Creating personal tab
Creating personal tab
You can edit any tab online and save it as your Personal.

You can edit, replace or remove any tab part or add personal notes – all changes will be seen only by you.

Personal tabs can be accessed anytime from any device, even offline.
Learn more »
Give kudos to tab author, rate the tab!
1 2 3 4 5
comments
print report bad tab
2 comments total.
+1 reply
MJuggla 135 Mar 09, 2010 02:54 AM

Excellent, by far the best tab on here. 100% perfect

0 reply
DanielHsv0 57 Nov 05, 2012 01:24 AM

"Get on ya knees you be a Dick Licker"

guest
You may want to rate the tab now too:
select rating
Wanna post a correction for this tab? Suggest correction