Oops, an error
Loading. Please wait.
We have Chord Pro version of Sunrise Trailer Park.
It's the closest thing you can get to the original song and it has interactive parts. Check out the tab »
×

Sunrise Trailer Park tab

version 1
version 1

Whole song

  • Its the newest version i guess and the only. I lea... Show more

Interactive

736 views 33 this week
no commentswrite comment
1 2 3 4 5
x 5
add to favorites
×
Save as Personal and add changes to this tab that will be seen only by you. Learn more ›
×
You can save this tab as Personal to edit and correct it or add notes. All changes will be seen only by you. Learn more »
launch autoscroll
font size
0
reset
how to read this tab
guitar tuner
edit
Autoscroll
slow
fast
+/-
esc
set tempo
stop
About this tab version
Its the newest version i guess and the only. I learned it by ear and tabbed it the best i could. Was this info helpful? Yes No
[Intro]

e|----------------------------|---------------------------|
B|----------------------------|---------------------------|
G|----------------------------|---------------------------|
D|-----0-----0----------------|----0-----0----------------|
A|--------------------5-----5-|------------------5-----5--|
D|--3-----3-----0--0-----0----|-3-----3-----0--0-----0----|

e|----------------------------|-----------------------------|
B|----------------------------|-----------------------------|
G|----------------------------|-----------------------------|
D|-----0-----0----------------|----0-----0---------------0--|
A|--------------------5-----5-|-----------------------------|
D|--8-----8-----0--0-----0----|-8-----8-----7--10--7--10----|


[Verse]

e|----------------------------|---------------------------|
B|----------------------------|---------------------------|
G|----------------------------|---------------------------|
D|-----0-----0----------------|----0-----0----------------|
A|--------------------5-----5-|------------------5-----5--|
D|--3-----3-----0--0-----0----|-3-----3-----0--0-----0----|

e|----------------------------|-----------------------------|
B|----------------------------|-----------------------------|
G|----------------------------|-----------------------------|
D|-----0-----0----------------|----0-----0---------------0--|
A|--------------------5-----5-|-----------------------------|
D|--8-----8-----0--0-----0----|-8-----8-----7--10--7--10----|


[Chorus]


e|------------------|----------------|-------------------|
B|------------------|----------------|-------------------|
G|------------------|----------------|-------------------|
D|------------------|----------------|-------------------|
A|--/8-8-x-0-0-0-0--|--/8-x-0-0-0-0--|-5----3----5----3--|
D|--/8-8-x-0-0-0-0--|--/8-x-0-0-0-0--|-5----3----5----3--|

e|------------------|----------------|-------------------|
B|------------------|----------------|-------------------|
G|------------------|----------------|-------------------|
D|------------------|----------------|-------------------|
A|--/8-8-x-0-0-0-0--|--/8-x-0-0-0-0--|-5----3----5----3--|
D|--/8-8-x-0-0-0-0--|--/8-x-0-0-0-0--|-5----3----5----3--|


[Verse]

e|----------------------------|---------------------------|
B|----------------------------|---------------------------|
G|----------------------------|---------------------------|
D|-----0-----0----------------|----0-----0----------------|
A|--------------------5-----5-|------------------5-----5--|
D|--3-----3-----0--0-----0----|-3-----3-----0--0-----0----|

e|----------------------------|-----------------------------|
B|----------------------------|-----------------------------|
G|----------------------------|-----------------------------|
D|-----0-----0----------------|----0-----0---------------0--|
A|--------------------5-----5-|-----------------------------|
D|--8-----8-----0--0-----0----|-8-----8-----7--10--7--10----|


[Chorus]


e|------------------|----------------|-------------------|
B|------------------|----------------|-------------------|
G|------------------|----------------|-------------------|
D|------------------|----------------|-------------------|
A|--/8-8-x-0-0-0-0--|--/8-x-0-0-0-0--|-5----3----5----3--|
D|--/8-8-x-0-0-0-0--|--/8-x-0-0-0-0--|-5----3----5----3--|

e|------------------|----------------|-------------------|
B|------------------|----------------|-------------------|
G|------------------|----------------|-------------------|
D|------------------|----------------|-------------------|
A|--/8-8-x-0-0-0-0--|--/8-x-0-0-0-0--|-5----3----5----3--|
D|--/8-8-x-0-0-0-0--|--/8-x-0-0-0-0--|-5----3----5----3--|


[Verse]
e|----------------------------|---------------------------|
B|----------------------------|---------------------------|
G|----------------------------|---------------------------|
D|-----0-----0----------------|----0-----0----------------|
A|--------------------5-----5-|------------------5-----5--|
D|--3-----3-----0--0-----0----|-3-----3-----0--0-----0----|

e|----------------------------|-----------------------------|
B|----------------------------|-----------------------------|
G|----------------------------|-----------------------------|
D|-----0-----0----------------|----0-----0---------------0--|
A|--------------------5-----5-|-----------------------------|
D|--8-----8-----0--0-----0----|-8-----8-----7--10--7--10----|


[Chorus]


e|------------------|----------------|-------------------|
B|------------------|----------------|-------------------|
G|------------------|----------------|-------------------|
D|------------------|----------------|-------------------|
A|--/8-8-x-0-0-0-0--|--/8-x-0-0-0-0--|-5----3----5----3--|
D|--/8-8-x-0-0-0-0--|--/8-x-0-0-0-0--|-5----3----5----3--|

e|------------------|----------------|-------------------|
B|------------------|----------------|-------------------|
G|------------------|----------------|-------------------|
D|------------------|----------------|-------------------|
A|--/8-8-x-0-0-0-0--|--/8-x-0-0-0-0--|-5----3----5----3--|
D|--/8-8-x-0-0-0-0--|--/8-x-0-0-0-0--|-5----3----5----3--|

The solo should be here and outro. as soon as i get that i will add it thank you!











************************************

| x   Dead note
| /   Slide up

************************************

            
            
Suggest correction
Creating personal tab
Creating personal tab
You can edit any tab online and save it as your Personal.

You can edit, replace or remove any tab part or add personal notes – all changes will be seen only by you.

Personal tabs can be accessed anytime from any device, even offline.
Learn more »
comments
print report bad tab
guest
You may want to rate the tab now too:
select rating
Wanna post a correction for this tab? Suggest correction