Oops, an error
Loading. Please wait.

Take Me tab

version 5
version 5
14,475 views 1 this week
1 commentread comment
1 2 3 4 5
x 5
add to favorites
×
Save as Personal and add changes to this tab that will be seen only by you. Learn more ›
×
You can save this tab as Personal to edit and correct it or add notes. All changes will be seen only by you. Learn more »
launch autoscroll
font size
0
reset
how to read this tab
guitar tuner
edit
Autoscroll
slow
fast
+/-
esc
set tempo
stop
Papa Roach - Take Me

tuning: standard (E A D G B e)

hopefully most of this is correct and easy to follow.
email at simo9852@gmail.com for any questions/corrections. cheers

p = pull off
h = hammer on
. = palm mute
x = mute


(chorus + intro)
e|-----------------------------------------------|
B|-----------------------------------------------|
G|--6-6-xxx----------2-2-xxx---------------------|
D|--6-6-xxx--2-2-xx--2-2-xxx--4-4-xx-------------| x 4
A|--4-4-xxx--2-2-xx--0-0-xxx--4-4-xx-------------|
E|-----------0-0-xx-----------2-2-xx-------------|
          
              (take me, and let me in)
          (don't break me, and shut me out)

(verse)
e|------------------------------------------------------|
B|------------------------------------------------------|
G|------------------------6----------------------6------|
D|------666----44---------6------777----66-------6------| x 2
A|--444-----77------444---4--444-----77----4444--4------|
E|---------------77-------------------------------------|
    ... ... ..   .. ...      ... ... .. .. ....

 (i lit my pain on fire and i watch it all burn down...)
 (and now im dancing in the ashes and theres no one else around..)


e|------------------------------------------------------|
B|------------------------------------------------------|
G|------------------------6-----------------------------|
D|------666----44---------6------777----66--------------| x 2
A|--444-----77------444---4--444-----77----44-----------|
E|---------------77---------------------------2p0-2h4---|
    ... ... ..   .. ...      ...  
  
        (Becauses i wanna be part of something)


(bridge)
e|-----------------------------------------------------|
B|-----------------------------------------------------|
G|-----------------------2-----------4-----------------|
D|-----------------------2-----------4-----------------| 
A|-----------------------0-----------2-----------------|
E|-----------------------------------------------------|
        (this is just a STORY of a BROKEN soul)




(pre-chorus)
e|---------------------------------------------------------------------|
B|---------------------------------------------------------------------|
G|-6-666--4--2-222-----------4-444---6-666--4--2-222----------4-444----|
D|-6-666--4--2-222---2-222---4-444---6-666--4--2-222---2-222--4-444----| x 1
A|-4-444--2--0-000---2-222---2-222---4-444--2--0-000---2-222--2-222----|
E|-------------------0-000-----------------------------0-000-----------|
          .                                 .
                                 
          (as days go by, my heart grows cold)
          (i cant seem to let this all pass me by)


(chorus)
e|-----------------------------------------------|
B|-----------------------------------------------|
G|--6-6-xxx----------2-2-xxx---------------------|
D|--6-6-xxx--2-2-xx--2-2-xxx--4-4-xx-------------| x 4
A|--4-4-xxx--2-2-xx--0-0-xxx--4-4-xx-------------|
E|-----------0-0-xx-----------2-2-xx-------------|
          (so take me, and let me in)
          (don't break me, and shut me out)


(verse)
e|------------------------------------------------------|
B|------------------------------------------------------|
G|------------------------6----------------------6------|
D|------666----44---------6------777----66-------6------| x 2
A|--444-----77------444---4--444-----77----4444--4------|
E|---------------77-------------------------------------|
    ... ... ..   .. ...      ... ... .. .. ....

 (i'm burning in the heavens and now im drowning in the hell)
 (my soul is in a coma and noone of my friends can tell)



e|------------------------------------------------------|
B|------------------------------------------------------|
G|------------------------6-----------------------------|
D|------666----44---------6------777----66--------------| x 2
A|--444-----77------444---4--444-----77----44-----------|
E|---------------77---------------------------2p0-2h4---|
    ... ... ..   .. ...      ...  
  
        (that im reaching out and getting nothing)


(bridge)
e|-----------------------------------------------------|
B|-----------------------------------------------------|
G|-----------------------2-----------4-----------------|
D|-----------------------2-----------4-----------------| 
A|-----------------------0-----------2-----------------|
E|-----------------------------------------------------|
        (this is just a STORY of a BROKEN soul)


(pre-chorus)
e|---------------------------------------------------------------------|
B|---------------------------------------------------------------------|
G|-6-666--4--2-222-----------4-444---6-666--4--2-222----------4-444----|
D|-6-666--4--2-222---2-222---4-444---6-666--4--2-222---2-222--4-444----| x 1
A|-4-444--2--0-000---2-222---2-222---4-444--2--0-000---2-222--2-222----|
E|-------------------0-000-----------------------------0-000-----------|
          .                                 .
                                 
          (as days go by, my heart grows cold)
          (i cant seem to let this all pass me by)

(chorus)
e|-----------------------------------------------|
B|-----------------------------------------------|
G|--6-6-xxx----------2-2-xxx---------------------|
D|--6-6-xxx--2-2-xx--2-2-xxx--4-4-xx-------------| x 4
A|--4-4-xxx--2-2-xx--0-0-xxx--4-4-xx-------------|
E|-----------0-0-xx-----------2-2-xx-------------|
          (so take me, and let me in)
          (don't break me, and shut me out)


e|-----------------------------------------------------|
B|-----------------------------------------------------|
G|-6-----------------------xxxx--6---6---2-------------|
D|-6-----------------------xxxx--6---6---2---4--6------|
A|-4-----------------------xxxx--7---4---0---4--6------|
E|-------------------------------------------2--4------|
                 (dont shut me out)



e|-----------------------------------------------|
B|-----------------------------------------------|
G|--6-6-xxx----------2-2-xxx---------------------|
D|--6-6-xxx--2-2-xx--2-2-xxx--4-4-xx-------------| x 2
A|--4-4-xxx--2-2-xx--0-0-xxx--4-4-xx-------------|
E|-----------0-0-xx-----------2-2-xx-------------|
          (does anyone around me feel the same)
          (put your fist up and vent your pain)


e|------------------------------------------------------------------------------------------|
B|------------------------------------------------------------------------------------------|
G|-6--------------------6--------------------6--------------------9-------------------------|
D|-6--------------------6--------------------6--------------------9------------777-66-------|
A|-4--0-4p0-4p0-444-22--4--0-4p0-4p0-777-66--4--0-4p0-4p0-444-22--7--0-4p0-4p0--------------|
E|------------------------------------------------------------------------------------------|
          (does anyone around me feel the same)
          (put your fist up and vent your pain)


(pre-chorus)
e|---------------------------------------------------------------------|
B|---------------------------------------------------------------------|
G|-6-666--4--2-222-----------4-444---6-666--4--2-222----------4-444----|
D|-6-666--4--2-222---2-222---4-444---6-666--4--2-222---2-222--4-444----| x 1
A|-4-444--2--0-000---2-222---2-222---4-444--2--0-000---2-222--2-222----|
E|-------------------0-000-----------------------------0-000-----------|
          .                                 .
                                 
          (as days go by, my heart grows cold)
          (i cant seem to let this all pass me by)


(outro)
e|-----------------------------------------------|
B|-----------------------------------------------|
G|--6-6-xxx----------2-2-xxx---------------------|
D|--6-6-xxx--2-2-xx--2-2-xxx--4-4-xx-------------| x 6
A|--4-4-xxx--2-2-xx--0-0-xxx--4-4-xx-------------|
E|-----------0-0-xx-----------2-2-xx-------------|
          (so take me, and let me in)
          (don't break me, and shut me out)

finish on
e|----|
B|----|
G|-6--|
D|-6--|
A|-4--|
E|----|






            
            
Suggest correction
Creating personal tab
Creating personal tab
You can edit any tab online and save it as your Personal.

You can edit, replace or remove any tab part or add personal notes – all changes will be seen only by you.

Personal tabs can be accessed anytime from any device, even offline.
Learn more »
comments
print report bad tab
1 comment total.
0 reply
TLG9289 352 Jan 26, 2009 05:50 AM

this is the best tab of this song. its 100% right. 5 stars

guest
Wanna post a correction for this tab? Suggest correction