Oops, an error
Loading. Please wait.
We have an official Time Is Running Out tab made by UG professional guitarists. Check out the tab »
×
5,938 views 1 this week
2 commentsread comments
1 2 3 4 5
2 more votes to show rating
add to favorites
×
Save as Personal and add changes to this tab that will be seen only by you. Learn more ›
×
You can save this tab as Personal to edit and correct it or add notes. All changes will be seen only by you. Learn more »
launch autoscroll
font size
0
reset
guitar tuner
backing track
0:00
0:00
edit
Autoscroll
slow
fast
+/-
esc
set tempo
stop
This is the Time Is Running Out bass tab, Drop D tuning.  The song is cool, sounds 
good, despite the fact it's easier than reading this paragraph I typed. The song is basically 
different riffs, described below, with whatever variations necessary pointed out.

Riff 1 (Intro, Bridge)
|---------------------------------------------------|
|---------------------------------------------------|
|-8---8-8--8---8-8--8--8-8--------------------------|
|--------------------------7---7-7--7---7-7--7--7-7-|
End on:
|------------------------------|
|------------------------------|
|-8---8-8--8---8-8--8--8-8-10~-|
|------------------------------|
Riff 2 (Chorus)
|-----------------------------------------------------------------|
|-----------------------------------------------------------------|
|-8-8-8--8-8-8--10-10-10--10-10-10-10-----------------------------|
|--------------------------------------5-5--5-5-5--7-7-7--7-7-7-7-|
End on:
|---------------------------------------------------------------|
|---------------------------------------------------------------|
|-8-8-8--8-8-8--10-10-10--10-10-10-10---------------------------|
|--------------------------------------5-5--5-5-5--7-7-7--5-5-5-|
Riff 3 (Verse, just a variation of riff 1)
|--------------------------------------|
|--------------------------------------|
|-8-8-8--8-8-8-8-----------------------|
|-----------------------7-7-7--7-7-7-7-|
End on:
|---------------------------|
|---------------------------|
|-8-8-8--8-8-8-8--------10~-|
|---------------------------|
Verse fills-
Verse 1 (0:46)   Verse 2 (1:22)
|------|         |------|
|------|         |------|
|--7\--|         |-1/7\-|
|------|         |------|
Riff 4 (Outro)
|---------------------------------|
|---------------------------------|
|-----------------3-3-3-3---------|
|-3-3-3-3-3-3-3-3---------5-5-5-5-|
End on:
|-----------------------------------|
|-----------------------------------|
|-----------------------------------|
|-3-3-3-3-3-3-3-3-5~-------7~-------|
Repeat each section however many times necessary, it's pretty obvious.
Legend:   ~ = hold note    / = slide up   \ = slide down

            
            
Suggest correction
Creating personal tab
Creating personal tab
You can edit any tab online and save it as your Personal.

You can edit, replace or remove any tab part or add personal notes – all changes will be seen only by you.

Personal tabs can be accessed anytime from any device, even offline.
Learn more »
Give kudos to tab author, rate the tab!
1 2 3 4 5
comments
print report bad tab
2 comments total.
0 reply
TheClash57 41 Aug 23, 2009 05:10 PM

Don't know why this is in Drop D. It all can be played in standard....

0 reply
JL Sevenfold 697 Aug 23, 2009 05:28 PM

I tabbed the guitar in drop d so I ended up tabbing the bass in drop d

guest
You may want to rate the tab now too:
select rating
Wanna post a correction for this tab? Suggest correction