Oops, an error
Loading. Please wait.
We have an official Time Is Running Out tab made by UG professional guitarists. Check out the tab »
×
2,693 views 1 this week
1 commentread comment
1 2 3 4 5
2 more votes to show rating
add to favorites
×
Save as Personal and add changes to this tab that will be seen only by you. Learn more ›
×
You can save this tab as Personal to edit and correct it or add notes. All changes will be seen only by you. Learn more »
launch autoscroll
font size
0
reset
how to read this tab
guitar tuner
backing track
0:00
0:00
edit
Autoscroll
slow
fast
+/-
esc
set tempo
stop
Author
Artist: Papa Roach
Song: Time Is Running Out
Album: The Paramour Sessions
Tabbed By: Yakreig

Hey This Is My First Tab So I hope Its Ok =)

Intro (0:01)

e|-----------------------------|            e|------|
B|-----------------------------|            B|------|
G|--3--3--3--3-----------------|            G|--5---|
D|--3--3--3--3--3--3--3--3-----|  x4 Then   D|--5---|
A|--5--5--5--5--3--3--3--3-----|            A|--7---|
E|--------------5--5--5--5-----|            E|------|

Main Riff (0:21)Work Out The Strumming For Yourself Its Really easy To Pick Up

e|------------------------------------------------------------|
B|------------------------------------------------------------|
G|--5-5-5--5-5-5-----------------7-7--7-7-7-------------------|
D|--5-5-5--5-5-5--5-5-5-5-5-5-5--7-7--7-7-7----7-7-7-----3-3-3|  X2
A|--3-3-3--3-3-3--5-5-5-5-5-5-5--5-5--5-5-5----7-7-7-----1-1-1|
E|----------------3-3-3-3-3-3-3----------------5-5-5-----1-1-1|

Verse (0:32)

e|--------------------------------------|          e|-------|
B|--------------------------------------|          B|-------|
G|------------------5-5-5--5-5-5-5------|          G|--7----|
D|--5-5-5--5-5-5-5--5-5-5--5-5-5-5------| x4 Then  D|--7----|
A|--5-5-5--5-5-5-5--3-3-3--3-3-3-3------|          A|--5----|
E|--3-3-3--3-3-3-3----------------------|          E|-------|

Chorus (0:52)

e|------------------------------------------------------------|
B|------------------------------------------------------------|
G|--5-5-5--5-5-5-----------------7-7--7-7-7-------------------|
D|--5-5-5--5-5-5--5-5-5-5-5-5-5--7-7--7-7-7----7-7-7-----3-3-3|  X4
A|--3-3-3--3-3-3--5-5-5-5-5-5-5--5-5--5-5-5----7-7-7-----1-1-1|
E|----------------3-3-3-3-3-3-3----------------5-5-5-----1-1-1|

Verse 2 (1:13)

e|--------------------------------------|          e|-------|
B|--------------------------------------|          B|-------|
G|------------------5-5-5--5-5-5-5------|          G|--7----|
D|--5-5-5--5-5-5-5--5-5-5--5-5-5-5------| x4 Then  D|--7----|
A|--5-5-5--5-5-5-5--3-3-3--3-3-3-3------|          A|--5----|
E|--3-3-3--3-3-3-3----------------------|          E|-------|

Chorus (1:34)

e|------------------------------------------------------------|
B|------------------------------------------------------------|
G|--5-5-5--5-5-5-----------------7-7--7-7-7-------------------|
D|--5-5-5--5-5-5--5-5-5-5-5-5-5--7-7--7-7-7----7-7-7-----3-3-3|  X4
A|--3-3-3--3-3-3--5-5-5-5-5-5-5--5-5--5-5-5----7-7-7-----1-1-1|
E|----------------3-3-3-3-3-3-3----------------5-5-5-----1-1-1|

Bridge (1:56)

e|-----------------------------|            e|------|
B|-----------------------------|            B|------|
G|--3--3--3--3-----------------|            G|--5---|
D|--3--3--3--3--3--3--3--3-----|  x6 Then   D|--5---|
A|--5--5--5--5--3--3--3--3-----|            A|--7---|
E|--------------5--5--5--5-----|            E|------|

Chorus (2:26)

e|------------------------------------------------------------|
B|------------------------------------------------------------|
G|--5-5-5--5-5-5-----------------7-7--7-7-7-------------------|
D|--5-5-5--5-5-5--5-5-5-5-5-5-5--7-7--7-7-7----7-7-7-----3-3-3|  X4
A|--3-3-3--3-3-3--5-5-5-5-5-5-5--5-5--5-5-5----7-7-7-----1-1-1|
E|----------------3-3-3-3-3-3-3----------------5-5-5-----1-1-1|

Post-Chorus (2:47)

e|-----------------|
B|-----------------|
G|------7----------|
D|--5---7---7------|  X4
A|--5---5---7------|
E|--3-------5------|

Ending (3:06)

e|--------|
B|--------|
G|--5---7-|
D|--5---7-|
A|--3---5-|
E|--------|

Thats All Of It I Think :s If There Are Any Problems Then E-mail Me At 
 raprakesh@hotmail.co.uk







            
            
Suggest correction
Creating personal tab
Creating personal tab
You can edit any tab online and save it as your Personal.

You can edit, replace or remove any tab part or add personal notes – all changes will be seen only by you.

Personal tabs can be accessed anytime from any device, even offline.
Learn more »
Give kudos to tab author, rate the tab!
1 2 3 4 5
comments
print report bad tab
1 comment total.
0 reply
Andrew Zara 41,519 Nov 05, 2006 05:58 AM

Papa Roach very rarely tune to standard E. This song is in drop D and is much easier to play that way. Good try for first tab though.

guest
You may want to rate the tab now too:
select rating
Wanna post a correction for this tab? Suggest correction